Oops, an error
Loading. Please wait.

Animal bass

version 4
version 4

Whole song

Interactive

7,370 views 12 this week
2 commentsread comments
1 2 3 4 5
x 5
add to favorites
×
Save as Personal and add changes to this tab that will be seen only by you. Learn more ›
×
You can save this tab as Personal to edit and correct it or add notes. All changes will be seen only by you. Learn more »
launch autoscroll
font size
0
reset
guitar tuner
backing track
0:00
0:00
edit
Autoscroll
slow
fast
+/-
esc
set tempo
stop
Author
Difficulty
Artist: Neon Trees
Song: Animal
Tabbed by Kuffy66 @hotmail.com

Intro - slide in after 8 beats
G|-------------------|-----------------|-----------------|-------------------------|
D|-------------------|-----------------|-----------------|-------------------------|
A|15/8-8-8-8-8-8-8-8-|-8-8-8-8-8-8-8-8-|-----------------|-------------------------| x2
E|-------------------|-----------------|-8-8-8-8-8-8-8-8-|-10-10-10-10-10-10-10-10-|

Verse 1
G|-----------------|-----------------|-----------------|-----------------|
D|-----------------|-----------------|-----------------|-----------------|
A|-8-8---8-8-8---8-|-8-8---8-8-8---8-|-----------------|-----------------|
E|-----------------|-----------------|-8-8---8-8-8---8-|-8-8---8-8-8---8-|

G|-----------------|-----------------|-----------------|-----------------|
D|-----------------|-----------------|-----------------|-----------8-8-8-|
A|-----------------|-----------------|-----------------|-----------------|
E|-6-6---6-6-6---6-|-6-6---6-6-6---6-|-8-8---8-8-8---8-|-8-8---8-8-------|

G|-----------------|-----------------|-----------------|-------------------|
D|-----------------|-----------------|-----------------|-------------------|
A|-8-8---8-8-8---8-|-8-8---8-8-8---8-|-----------------|-------------------|
E|-----------------|-----------------|-8-8---8-8-8---8-|-8-8---8-8-8---8-6H|

Chorus 1
G|-----------------|-----------------|-----------------|-----------------|
D|-----------------|-----------------|-----------------|-----------------|
A|-8-8-8-8-8-8-8-8-|-8-8-8-8-8-8-8-8-|-----------------|-----------------|
E|-----------------|-----------------|-8-8-8-8-8-8-8-8-|-8-8-8-8-8-8-8-8-|

G|-----------------|-----------------|-----------------|-----------------|
D|-----------------|-----------------|-----------------|-----------------|
A|-----------------|-----------------|-8-8-8-8-8-8-8-8-|-8-8-8-8-8-8-8-8-|
E|-6-6-6-6-6-6-6-6-|-6-6-6-6-6-6-6-6-|-----------------|-----------------|

G|-------------------------|-------------------------|-----------------|-----------------|
D|-------------------------|-------------------------|-----------------|-----------------|
A|-12-12-12-12-12-12-12-12-|-12-12-12-12-12-12-12-12-|-----------------|-----------------|
E|-------------------------|-------------------------|-6-6-6-6-6-6-6-6-|-6-6-6-6-6-6-6-6-|

G|-----------------|-----------------|-----------------|-----------------|
D|-----------------|-----------------|-----------------|-----------8-8-8-|
A|-----------------|-----------------|-8-8---8-8-8---8-|-8-8---8-8-------|
E|-8-8-8-8-8-8-8-8-|-8-8-8-8-8-8-8-8-|-----------------|-----------------|

Verse 2
G|-----------------|-----------------|-----------------|-----------------|
D|-----------------|-----------------|-----------------|-----------------|
A|-8-8---8-8-8---8-|-8-8---8-8-8---8-|-----------------|-----------------|
E|-----------------|-----------------|-8-8---8-8-8---8-|-8-8---8-8-8---8-|

G|-----------------|-----------------|-----------------|-----------------|
D|-----------------|-----------------|-----------------|-----------8-8-8-|
A|-----------------|-----------------|-----------------|-----------------|
E|-6-6---6-6-6---6-|-6-6---6-6-6---6-|-8-8---8-8-8---8-|-8-8---8-8-------|

G|-----------------|-----------------|-----------------|-----------------|
D|-----------------|-----------------|-----------------|-----------------|
A|-8-8---8-8-8---8-|-8-8---8-8-8---8-|-----------------|-----------------|
E|-----------------|-----------------|-8-8---8-8-8---8-|-8-8---8-8-8---8-|

G|-----------------|-----------------|-----------------|-----------------|
D|-----------------|-----------------|-----------------|-----------------|
A|-----------------|-----------------|-----------------|-----------------|
E|-6-6---6-6-6---6-|-6-6---6-6-6---6-|-8-8---8-8-8---8-|-8-8---8-8-8---8-|


Chorus 2
G|-----------------|-----------------|-----------------|-----------------|
D|-----------------|-----------------|-----------------|-----------------|
A|-8-8-8-8-8-8-8-8-|-8-8-8-8-8-8-8-8-|-----------------|-----------------|
E|-----------------|-----------------|-8-8-8-8-8-8-8-8-|-8-8-8-8-8-8-8-8-|

G|-----------------|-----------------|-----------------|-----------------|
D|-----------------|-----------------|-----------------|-----------------|
A|-----------------|-----------------|-8-8-8-8-8-8-8-8-|-8-8-8-8-8-8-8-8-|
E|-6-6-6-6-6-6-6-6-|-6-6-6-6-6-6-6-6-|-----------------|-----------------|

G|-------------------------|-------------------------|-----------------|-----------------|
D|-------------------------|-------------------------|-----------------|-----------------|
A|-12-12-12-12-12-12-12-12-|-12-12-12-12-12-12-12-12-|-----------------|-----------------|
E|-------------------------|-------------------------|-6-6-6-6-6-6-6-6-|-6-6-6-6-6-6-6-6-|

G|-----------------|-----------------|
D|-----------------|-----------------|
A|-----------------|-----------------|
E|-8-8-8-8-8-8-8-8-|-8-8-8-8-8-8-8-8-|

Bridge
G|-----------------|-----------------|-----------------|-----------------|
D|-----------------|-----------------|-----------------|-----------------|
A|-----------------|-----------------|-----------------|-----------------|x2
E|-6---------------|-----------------|-8---------------|-----------------|

G|-----------------|-----------------|
D|-----------------|-8-8-8-8-8-8-8-8-|
A|-----------------|-----------------|
E|-6---------------|-----------------|

G|-----------------|-----------------|-----------------|-------------------------|
D|-----------------|-----------------|-----------------|-------------------------|
A|-8-8-8-8-8-8-8-8-|-8-8-8-8-8-8-8-8-|-----------------|-------------------------|x2
E|-----------------|-----------------|-8-8-8-8-8-8-8-8-|-10-10-10-10-10-10-10-10-|

G|-----------------|-----------------|-----------------|-----------------|
D|-----------------|-----------------|-----------------|-----------------|
A|-8-8---8-8-8---8-|-8-8---8-8-8---8-|-8-8---8-8-8---8-|-8-8---8-8-------|
E|-----------------|-----------------|-----------------|-----------------|

Chorus 3
G|-----------------|-----------------|-----------------|-----------------|
D|-----------------|-----------------|-----------------|-----------------|
A|-8-8-8-8-8-8-8-8-|-8-8-8-8-8-8-8-8-|-----------------|-----------------|
E|-----------------|-----------------|-8-8-8-8-8-8-8-8-|-8-8-8-8-8-8-8-8-|

G|-----------------|-----------------|-----------------|-----------------|
D|-----------------|-----------------|-----------------|-----------------|
A|-----------------|-----------------|-8-8-8-8-8-8-8-8-|-8-8-8-8-8-8-8-8-|
E|-6-6-6-6-6-6-6-6-|-6-6-6-6-6-6-6-6-|-----------------|-----------------|

G|-------------------------|-------------------------|-----------------|-----------------|
D|-------------------------|-------------------------|-----------------|-----------------|
A|-12-12-12-12-12-12-12-12-|-12-12-12-12-12-12-12-12-|-----------------|-----------------|
E|-------------------------|-------------------------|-6-6-6-6-6-6-6-6-|-6-6-6-6-6-6-6-6-|

G|-----------------|-----------------|-----------------|-----------------|
D|-----------------|-----------------|-----------------|-----------------|
A|-----------------|-----------------|-8---------------|-----------------|
E|-8-8-8-8-8-8-8-8-|-8-8-8-8-8-8-8-8-|-----------------|-----------------|

End

            
            
Suggest correction
Creating personal tab
Creating personal tab
You can edit any tab online and save it as your Personal.

You can edit, replace or remove any tab part or add personal notes – all changes will be seen only by you.

Personal tabs can be accessed anytime from any device, even offline.
Learn more »
comments
print report bad tab
2 comments total.
+1 reply
Diphallus 135 Apr 08, 2012 12:51 PM

Very close but a few minor corrections:
1) There's no bass in the intro, it just slides from 15 into verse 1.
2) The ending chorus goes through once as shown, but the second time through it starts like this before continuing as shown in tab:
G|-----------------|-----------------|-----------------|-----------------|
D|-----------------|-----------------|-----------------|-----------------|
A|-8-8-8-8-8-8-8-8-|-8-8-8-8-8-8-8-8-|-----------------|-----------------|
E|-----------------|-----------------|-8-8-8-8-8-8-8-8-|-8-8-8-8-8-8-8-8-|

G|-------------------------|-----------------|-----------------|-----------------|
D|-------------------------|-----------------|-----------------|-----------------|
A|-------------------------|-----------------|-8-8-8-8-8-8-8-8-|-----------------|
E|-10-10-10-10-10-10-10-10-|-6-6-6-6-6-6-6-6-|-----------------|-8-8-8-8-8-8-8-8-|

3) it's easier on the chorus if you hit 7 on D instead of 12 on A.

Otherwise, spot on, very good tab.

0 reply
sean.rios.528 10 Oct 27, 2013 11:26 AM

Sounds about right..

guest
You may want to rate the tab now too:
select rating
Wanna post a correction for this tab? Suggest correction