Oops, an error
Loading. Please wait.

Animals tab

391 views 6 this week
no commentswrite comment
1 2 3 4 5
2 more votes to show rating
add to favorites
×
Save as Personal and add changes to this tab that will be seen only by you. Learn more ›
×
You can save this tab as Personal to edit and correct it or add notes. All changes will be seen only by you. Learn more »
launch autoscroll
font size
0
reset
how to read this tab
guitar tuner
edit
Autoscroll
slow
fast
+/-
esc
set tempo
stop
Author
Difficulty
Just for your information this is the lead of the song no rhythm included here. Lets begin.


This riff is pretty much the whole song including the intro and the chorus this is 
played at the beginning and when he says "Uh Oh I want some more. Uh Oh. What are you waiting for...."


                              CHORUS/INTRO
|------------------------------------------------------------------------------------|
|--10-10-----------8-8--10-10-----------8-8------------------------------------------|
|--------7-7-10-10------------7-7-10-10-----10-10-10-10-9-9-9-9-7-7-7-7-7-7-7-7------|
|------------------------------------------------------------------------------------|
|------------------------------------------------------------------------------------|
|------------------------------------------------------------------------------------|

this part below is played right before the song says "here we go again. We stick like 
animals......" and before " I think the chemicals are sinking in..."also before "and I
wont be denied"

    BRIDGE
|------------|
|------------|
|---3-3-3----|
|------------|
|------------|
|------------|

This part below is the power chords played when he says
"The Shh. The World is quiet..."


            CATCH
|-----------------------------------|
|-----------------------------------|
|-----------------------------------|
|--3------5------3--------3-3-3-3-3-|
|--1------3------1--------1-1-1-1-1-|
|-----------------------------------|

This part below is the solo played at the end and repeated twice When he says
"Uh Oh. Here we go again.............."

                     SOLO
| --------------------------------------------------------------------------|
|---------------------------------------------------------------------------|
|---10/(12)\(9)---9----9\(5) 10---5------3\(0)------------------------------|
|---------------------------------------------------------------------------|
|---------------------------------------------------------------------------|
| --------------------------------------------------------------------------|

Song Order

Intro (repeat 2)
Bridge
Chorus (repeat 3)
Bridge (repeat 2)
Chorus (repeat 3)
Catch
Chorus (repeat 5)
Solo (repeat 2)

            
            
Suggest correction
Creating personal tab
Creating personal tab
You can edit any tab online and save it as your Personal.

You can edit, replace or remove any tab part or add personal notes – all changes will be seen only by you.

Personal tabs can be accessed anytime from any device, even offline.
Learn more »
Give kudos to tab author, rate the tab!
1 2 3 4 5
comments
print report bad tab
guest
You may want to rate the tab now too:
select rating
Wanna post a correction for this tab? Suggest correction