Oops, an error
Loading. Please wait.

Everybody Talks Tab

version 1
version 1

Whole song

Interactive

45,580 views 33 this week
1 commentread comment
1 2 3 4 5
x 23
add to favorites
launch autoscroll
font size
0
reset
how to read this tab
guitar tuner
Autoscroll
slow
fast
+/-
esc
set tempo
stop
Help us to improve Ultimate-Guitar.com Take our survey!
×
Standard Tuning

[Verse]
e---------------------------4-4--4-4-4--4-4-4--4-4-4-|
b-8-8--8-8-8--8-8-8--8-8-8--4-4--4-4-4--4-4-4--4-4-4-|
g-8-8--8-8-8--8-8-8--8-8-8--5-5--5-5-5--5-5-5--5-5-5-|
d-8-8--8-8-8--8-8-8--8-8-8--6-6--6-6-6--6-6-6--6-6-6-|
a-6-6--6-6-6--6-6-6--6-6-6--6-6--6-6-6--6-6-6--6-6-6-|
e---------------------------4-4--4-4-4--4-4-4--4-4-4-|

[Pre-Chorus]
e-6-6-6-6-6-6-6-6-6-6-6-6-6-6-6-6-|
b-6-6-6-6-6-6-6-6-6-6-6-6-6-6-6-6-|
g-7-7-7-7-7-7-7-7-7-7-7-7-7-7-7-7-|
d-8-8-8-8-8-8-8-8-8-8-8-8-8-8-8-8-|
a-8-8-8-8-8-8-8-8-8-8-8-8-8-8-8-8-|
e-6-6-6-6-6-6-6-6-6-6-6-6-6-6-6-6-|

[Chorus]
e-------------------------------------------------------------------------------------------------|
b-8-8-8-8-8-8-8-8-8-8-8-8-8-8-8-8-----------------------------------------------------------------|
g-8-8-8-8-8-8-8-8-8-8-8-8-8-8-8-8-5-5-5-5-5-5-5-5-5-5-5-5-5-5-5-5-7-7-7-7-7-7-7-7-5-5-5-5-5-5-5-5-|
d-8-8-8-8-8-8-8-8-8-8-8-8-8-8-8-8-6-6-6-6-6-6-6-6-6-6-6-6-6-6-6-6-8-8-8-8-8-8-8-8-6-6-6-6-6-6-6-6-|
a-6-6-6-6-6-6-6-6-6-6-6-6-6-6-6-6-6-6-6-6-6-6-6-6-6-6-6-6-6-6-6-6-8-8-8-8-8-8-8-8-6-6-6-6-6-6-6-6-|
e---------------------------------4-4-4-4-4-4-4-4-4-4-4-4-4-4-4-4-6-6-6-6-6-6-6-6-4-4-4-4-4-4-4-4-|

e------------------------------------------------------------------------------------------------|
b-8-8-8-8-8-8-8-8-8-8-8-8-8-8-8-8----------------------------------------------------------------|
g-8-8-8-8-8-8-8-8-8-8-8-8-8-8-8-8-4-4-4-4-4-4-4-4-4-4-4-4-4-4-4-4-5-5-5-5-5-5-5-5-7-7-7-7-7-7-7-7|
d-8-8-8-8-8-8-8-8-8-8-8-8-8-8-8-8-5-5-5-5-5-5-5-5-5-5-5-5-5-5-5-5-6-6-6-6-6-6-6-6-8-8-8-8-8-8-8-8|
a-6-6-6-6-6-6-6-6-6-6-6-6-6-6-6-6-5-5-5-5-5-5-5-5-5-5-5-5-5-5-5-5-6-6-6-6-6-6-6-6-8-8-8-8-8-8-8-8|
e---------------------------------3-3-3-3-3-3-3-3-3-3-3-3-3-3-3-3-4-4-4-4-4-4-4-4-6-6-6-6-6-6-6-6|

e---------------------------------|
b-8-8-8-8-8-8-8-8-8-8-8-8-8-8-8-8-|
g-8-8-8-8-8-8-8-8-8-8-8-8-8-8-8-8-|
d-8-8-8-8-8-8-8-8-8-8-8-8-8-8-8-8-|
a-6-6-6-6-6-6-6-6-6-6-6-6-6-6-6-6-|
e---------------------------------|

[Verse 2]
Rhythm is same
Lead
e----------------------------|
b----11------------11--------|
g-10----10-12~--10----8-10~--|
d----------------------------|
a----------------------------|
e----------------------------|

[Pre-Chorus]
[Chorus]

[Bridge]
e-4-4--4-4-4--4-4-4--4-4-4----------------------------|
b-4-4--4-4-4--4-4-4--4-4-4--8-8--8-8-8--8-8-8--8-8-8--|
g-5-5--5-5-5--5-5-5--5-5-5--8-8--8-8-8--8-8-8--8-8-8--|
d-6-6--6-6-6--6-6-6--6-6-6--8-8--8-8-8--8-8-8--8-8-8--|
a-6-6--6-6-6--6-6-6--6-6-6--6-6--6-6-6--6-6-6--6-6-6--|
e-4-4--4-4-4--4-4-4--4-4-4----------------------------|

e-4-4--4-4-4--4-4-4--4-4-4--6-6--6-6-6--6-6-6--6-6-6-|
b-4-4--4-4-4--4-4-4--4-4-4--6-6--6-6-6--6-6-6--6-6-6-|
g-5-5--5-5-5--5-5-5--5-5-5--7-7--7-7-7--7-7-7--7-7-7-|
d-6-6--6-6-6--6-6-6--6-6-6--8-8--8-8-8--8-8-8--8-8-8-|
a-6-6--6-6-6--6-6-6--6-6-6--8-8--8-8-8--8-8-8--8-8-8-|
e-4-4--4-4-4--4-4-4--4-4-4--6-6--6-6-6--6-6-6--6-6-6-|


[Solo]
Rhythm strums this chord repeatedly
e---
b-8-
g-8-
d-8-
a-6-
e---

Lead
e-[------- Repeat ------------]-----------------------------|
b-[--------- 3x --------------]-----------------------------|
g-[---------------------------]-----------------------------|
d-[---------------------------]---------------------8-8-8-8-|
a-[-8-10-8-10-8-10-8-10-11-10-]-8-10-8-10-8-10-8-10---------|
e-[---------------------------]-----------------------------|



************************************

| ~  Vibrato

************************************
Suggest correction
comments
print report bad tab
1 comment total. show 1 bad comment
guest
You may want to rate the tab now too:
select rating
Wanna post a correction for this tab? Suggest correction