Oops, an error
Loading. Please wait.

Sleeping With A Friend Tab

7,986 views 12 this week
no commentswrite comment
1 2 3 4 5
excellent!
x 4
add to favorites
launch autoscroll
font size
0
reset
how to read this tab
guitar tuner
Tab Pro tools
  • play this tab
  • loop segment
  • change instrument
  • show fretboard
  • metronome
×
Best way to learn
"Sleeping With A Friend"
Autoscroll
slow
fast
+/-
esc
set tempo
stop
Contributor
Drop D Tuning

Intro/Chorus
e-----------------------------------------|
b-12----10--------------------------------|
g----11----11----11----11--12-12-11-11----|
d-------------12----12-----------------12-|
a-----------------------------------------|
d-----------------------------------------|

Synth
e-----------------------------------------------|
b-----------------------------------------------|
g------9~--11~--12~-----------9~----------------|
d-12~--------------------12~------11~----12~----|
a-----------------------------------------------|
d-----------------------------------------------|

Rhythm (It's the bass or something.  Can play in between guitar parts.  Bottom d0's for 
D chord are optional)
e---------------------------------------------------------------------|
b---------------------------------------------------------------------|
g----------7-7-7-7---------------------------7-7-7-7------------------|
d-5-5-5-5--7-7-7-7--7-7-7-7-7-7-7-7-5-5-5-5--7-7-7-7--7-7-7-7-9-9-9-9-|
a-5-5-5-5--5-5-5-5--7-7-7-7-7-7-7-7-5-5-5-5--5-5-5-5--7-7-7-7-9-9-9-9-|
d-5-5-5-5-(0-0-0-0)-7-7-7-7-7-7-7-7-5-5-5-5-(0-0-0-0)-7-7-7-7-9-9-9-9-|

Verse
Rhythm
e-----------------------------------------------------------------|
b-----------------------------------------------------------------|
g-----------------------------------------------------------------|
d-----------------------------------------------------------------|
a-----------------------------------------------------------------|
d-5-5-5-5-5-5-5-5-5-5-5-5-0-0-0-0-7-7-7-7-7-7-7-7-7-7-7-7-9-9-7-7-|

Guitar
e-----------------------------------------------------------------------------------|
b-------------------------------7---77------77---------77--------7---7--------------|
g-77-99-77---77-99-77---7--9-7----7----99------99-77------99-77----9---9---77-99-77-|
d-----------------------------------------------------------------------------------|
a-----------------------------------------------------------------------------------|
d-----------------------------------------------------------------------------------|

e-------------------------------------------------------------------------|
b-------------------------------7---7-------7-----77---------7------------|
g-77-99-77---77-99-77---7--9-7----7---9---7---9------99-77------9-7--9-77-|
d-------------------------------------------------------------------------|
a-------------------------------------------------------------------------|
d-------------------------------------------------------------------------|

Chorus

Verse 2
Rhythm Same
Guitar Same

Synth (Plays some stuff when guitar comes in but pretty hard to hear it.  I'll try and 
tab it later on.)
e-------------------------------|
b-----------7~------------7~----|
g---7---7-9---------7---7-------|
d-9---9-----------9---9---------|
a-------------------------------|
e-------------------------------|

Chorus

Bridge
Rhythm
e---------------------------------------------------------------|
b---------------------------------------------------------------|
g---------------------------------------------------------------|
d-2-2-2-2-2-2-2-2/5-5-5-5-5-5-5-5-7-7-7-7-7-7-7-4-4-4-4-4-4-4-4-|
a-2-2-2-2-2-2-2-2/5-5-5-5-5-5-5-5-7-7-7-7-7-7-7-4-4-4-4-4-4-4-4-|
d-2-2-2-2-2-2-2-2/5-5-5-5-5-5-5-5-7-7-7-7-7-7-7-4-4-4-4-4-4-4-4-|

e--------------------------------------------------|
b--------------------------------------------------|
g--------------------------------------------------|
d-2-2-2-2-2-2-2-2/5-5-5-5-5-5-5-5-7-7-7-7-7-7-7//--|
a-2-2-2-2-2-2-2-2/5-5-5-5-5-5-5-5-7-7-7-7-7-7-7//--|
d-2-2-2-2-2-2-2-2/5-5-5-5-5-5-5-5-7-7-7-7-7-7-7//--|

Synth Part (Very faint part at the "All my friends..." part.)
e---------------------------------|
b-----7-------7-------7---88-77---|
g---7---7---7---7---7---7-------7-| repeat
d-9-------9-------9---------------|
a---------------------------------|
d---------------------------------|
comments
print report bad tab
I want to post or [tab]
guest
You may want to rate the tab now too:
select rating
Please do not post tabs as comments. Select "correction" instead!