Oops, an error
Loading. Please wait.

007 Is Also Gonna Die Bass Tab

version 1
version 1

Whole song

Interactive

2,643 views 6 this week
no commentswrite comment
1 2 3 4 5
1 last vote to show rating
add to favorites
launch autoscroll
font size
0
reset
guitar tuner
Autoscroll
slow
fast
+/-
esc
set tempo
stop
Help us to improve Ultimate-Guitar.com Take our survey!
×
Author
----------------------------------------------------------------------------
			007 Is Also Gonna Die - Nephew
----------------------------------------------------------------------------

Tabbed By : Bee-Ay
e-mail: Leviathan_ben@hotmail.com

Tuning: Standard.

Det ER en svær sang!

Omkvæd:
G|-------------------------------------------------------------------|
D|*------------------------------------------------------------------|
A|*-7-7-7-7-7-7-7-7-7-7-7-7-7-7-7-7-5-5-5-5-5-5-5-5-3-3-3-3-3-3-3-3--|
E|-------------------------------------------------------------------|

G|------------------------------------------------------------------------------------------|
D|-----------------------------------------------------------------------------------------*|
A|-7-7-7-7-7-7-7-7-10-10-10-10-10-10-10-10-14-14-14-14-14-14-14-14-14-14-14-14-14-14-14-14-*|
E|------------------------------------------------------------------------------------------|

Tema op til vers: (Det skal gå PÆNT stærkt!)
G|----------------------------------------------------------------------|
D|----------------------------------------------------------12-12-12-12-|
A|-10-10-7-7-5/7--7-7-----12-0-0-10-10-12-12-12/15-15-15-12-------------|
E|----------------------------------------------------------------------|

G|-----------------------------------------------------------------------------|
D|----------------------------------------------------------12//---------------|
A|-10-10-7-7-5/7--7-7-----12-0-0-10-10-12-12-12/15-15-15-12------5-5-5-5/7-7-7-|
E|-----------------------------------------------------------------------------|


2. Vers... Skal OGSÅ gå stærkt!
G|--------------------------------------------------------|
D|-------------------------------------12//---------------|
A|---12-0-0-10-10-12-12-12/15-15-15-12------5-5-5-5/7-7-7-|
E|--------------------------------------------------------|

G|----------------------------------------------------|
D|----------------------------------------------------|
A|---12-0-0-10-10-12-12-12-15-15-15-0-5-5-5-5-5/7-7-7-|
E|----------------------------------------------------|

G|--------------------------------------------------------|
D|-------------------------------------12//---------------|
A|---12-0-0-10-10-12-12-12/15-15-15-12------5-5-5-5/7-7-7-|
E|--------------------------------------------------------|

G|-----------------------------------------------|
D|-----------------------------------------------|
A|---12-0-0-10-10-12-12-12-15-15-15-0-5-5-5-5-7--|
E|-----------------------------------------------|

==== Omkvæd ====


B-Stykke og Outro:
G|------------------------------------------------------------------|
D|*-----------------------------------------------------------------|
A|*-7-7-7-7-7-7-7-7-7-7-7-7-7-7-7-7-5-5-5-5-5-5-5-5-2-2-2-2-2-2-2-2-|
E|------------------------------------------------------------------|

G|---------------------------------------------------------------------------------------------|
D|--------------------------------------------------------------------------------------------*|
A|-7-7-7-7-7-7-7-7-10-10-10-10-10-10-10-10-10-14-14-14-14-14-14-14-14-14-14-14-14-14-14-14-14-*|
E|---------------------------------------------------------------------------------------------|


Mega svedigt!

Tak..
Suggest correction
Give kudos to tab author, rate the tab!
1 2 3 4 5
comments
print report bad tab
guest
You may want to rate the tab now too:
select rating
Wanna post a correction for this tab? Suggest correction