Oops, an error
Loading. Please wait.

Blaa Black Tab

version 2
version 2

Whole song

525 views 1 this week
no commentswrite comment
1 2 3 4 5
accurate
x 3
add to favorites
launch autoscroll
font size
0
reset
how to read this tab
guitar tuner
Autoscroll
slow
fast
+/-
esc
set tempo
stop
Help us to improve Ultimate-Guitar.com Take our survey!
×
Author
Difficulty
Bee-Ay 1,626
intermediate
----------------------------------------------------------------------------
                             Blå Og Black - Nephew
----------------------------------------------------------------------------
Tabbed by: Bee-Ay
Email: Leviathan_ben@hotmail.com

Tuning: Standard


Denne her sang mangler...

Guitar som hopper ind i 1. vers:
e|---------------------------------------------------------------|
B|-8--8-----10--10-----11--11-----9--9---------------------------|
G|---------------------------------------------------------------|
D|---------------------------------------------------------------|
A|---------------------------------------------------------------|
E|---------------------------------------------------------------|


1. Omkvæd "me and my":
e|---------------------------------------------------------------|
B|---------------------------------------------------------------|
G|------------------------------------8---8----------5-----5-----|
D|-----5---5---5-----5-----5---5----8-------8------5---5-----5---|
A|---5-------------5---5----------6-----6-----6--3-------3-----3-|
E|-3-----3---3---3-------3---3-----------------------------------|


B-Stykke "Burn, burn my tatoo":
e|-------------------------------|
B|-------------------------------|
G|-------------------------------|
D|-----5---5---5-----5-----5---5-| x4
A|---5-------------5---5---------|
E|-3-----3---3---3-------3---3---|

2. vers:
e|----------------------------------------------------------------------|
B|----------------------------------------------------------------------|
G|*--------------------------------------------------------------------*|
D|*-5-5-5-5-5-5-5-5--3-3-3-3-3-3-3-3--8-8-8-8-8-8-8-3--6-6-6-6-6-8-8-8-*|
A|--5-5-5-5-5-5-5-5--3-3-3-3-3-3-3-3--8-8-8-8-8-8-8-3--6-6-6-6-6-8-8-8--|
E|--3-3-3-3-3-3-3-3--1-1-1-1-1-1-1-1--6-6-6-6-6-6-6-1--4-4-4-4-4-6-6-6--|


2. Omkvæd. Er i princippet det samme, bare hvor han smade løs med akkorder:
e|-------------------------------------------------------------------|
B|-------------------------------------------------------------------|
G|----------------------------------8-8-8-8-8-8-8-8-5-5-5-5-5-5-5-5--|
D|-5-5-5-5-5-5-5-5-5-5-5-5-5-5-5-5--8-8-8-8-8-8-8-8-5-5-5-5-5-5-5-5--|
A|-5-5-5-5-5-5-5-5-5-5-5-5-5-5-5-5--6-6-6-6-6-6-6-6-3-3-3-3-3-3-3-3--|
E|-3-3-3-3-3-3-3-3-3-3-3-3-3-3-3-3-----------------------------------|


B-stykke med ekstra fill:
e|-------------------------------|
B|-------------------------------|
G|-------------------------------|
D|-----5---5---5-----5-----5---5-| x4
A|---5-------------5---5---------|
E|-3-----3---3---3-------3---3---|

e|-------------------------------------------------------------------|
B|-------------------------------------------------------------------|
G|------------------7-7-7-7-7-7-7-7-8-8-8-8-8-8-8-8------------------|
D|-5-5-5-5-5-5-5-5--7-7-7-7-7-7-7-7-8-8-8-8-8-8-8-8--6-6-6-6-6-8-8-8-|
A|-5-5-5-5-5-5-5-5--5-5-5-5-5-5-5-5-6-6-6-6-6-6-6-6--6-6-6-6-6-8-8-8-|
E|-3-3-3-3-3-3-3-3-----------------------------------4-4-4-4-4-6-6-6-|

e|--------------------------------------------------------------------------------|
B|--------------------------------------------------5-5-5-5-5-5-5-5---5-5-5-5-5-5-|
G|------------------7-7-7-7-7-7-7-7-8-8-8-8-8-8-8-8/5-5-5-5-5-5-5-5---5-5-5-5-5-5-|
D|-5-5-5-5-5-5-5-5--7-7-7-7-7-7-7-7-8-8-8-8-8-8-8-8/5-5-5-5-5-5-5-5---5-5-5-5-5-5-|
A|-5-5-5-5-5-5-5-5--5-5-5-5-5-5-5-5-6-6-6-6-6-6-6-6/3-3-3-3-3-3-3-3---3-3-3-3-3-3-|
E|-3-3-3-3-3-3-3-3----------------------------------------------------------------|


C-stykke med smadder på:
e|-----------------------------------------------------------------|
B|-----------------------------------------------------------------|
G|-------------------7-7-7-7-7-7-7-7-8-8-8-8-8-8-8-8-5-5-5-5-5-5-5-|
D|-5--5-5-5-5-5-5-5--7-7-7-7-7-7-7-7-8-8-8-8-8-8-8-8-5-5-5-5-5-5-5-|
A|-5--5-5-5-5-5-5-5--5-5-5-5-5-5-5-5-6-6-6-6-6-6-6-6-3-3-3-3-3-3-3-|
E|-3--3-3-3-3-3-3-3------------------------------------------------|

e|-----------------------------------------------------------------|
B|-----------------------------------------------------------------|
G|-------------------7-7-7-7-7-7-7-7-8-8-8-8-8-8-8-8-5-5-5-5-5-5-5-|
D|-5--5-5-5-5-5-5-5--7-7-7-7-7-7-7-7-8-8-8-8-8-8-8-8-5-5-5-5-5-5-5-|
A|-5--5-5-5-5-5-5-5--5-5-5-5-5-5-5-5-6-6-6-6-6-6-6-6-3-3-3-3-3-3-3-|
E|-3--3-3-3-3-3-3-3------------------------------------------------|

e|------------------------------------------------------------------|
B|------------------------------------------------------------------|
G|-------------------7-7-7-7-7-7-7-7-8-8-8-8-8-8-8-8----------------|
D|-5--5-5-5-5-5-5-5--7-7-7-7-7-7-7-7-8-8-8-8-8-8-8-8--6-6-6-6-6-6-6-|
A|-5--5-5-5-5-5-5-5--5-5-5-5-5-5-5-5-6-6-6-6-6-6-6-6--6-6-6-6-6-6-6-|
E|-3--3-3-3-3-3-3-3-----------------------------------4-4-4-4-4-4-4-|

e|-------------------------------------------------------------------------------|
B|-------------------------------------------------------------------------------|
G|-------------------7-7-7-7-7-7-7-7-8-8-8-8-8-8-8-8-5-5-5-5-5-5-5---5-5-5-5-5-5-|
D|-5--5-5-5-5-5-5-5--7-7-7-7-7-7-7-7-8-8-8-8-8-8-8-8-5-5-5-5-5-5-5---5-5-5-5-5-5-|
A|-5--5-5-5-5-5-5-5--5-5-5-5-5-5-5-5-6-6-6-6-6-6-6-6-3-3-3-3-3-3-3---3-3-3-3-3-3-|
E|-3--3-3-3-3-3-3-3--------------------------------------------------------------|


Stykket spilles 2 gange.

Sangen sluttes bare af på en G5 som ringer ud:
e|---|
B|---|
G|---|
D|-5-|
A|-5-|
E|-3-|
Suggest correction
What's this?
You can suggest a correction to this tab. Community and Mods will review your correction and vote to approve or reject it.
comments
We did not receive enough feedback on this tab! Please rate:
print report bad tab
1 2 3 4 5
guest
You may want to rate the tab now too:
select rating
Please do not post tabs as comments. Select "correction" instead!