Oops, an error
Loading. Please wait.

Dtap Bass Tab

version 1
version 1

Whole song

Interactive

68 views 1 this week
no commentswrite comment
1 2 3 4 5
3 more votes to show rating
add to favorites
launch autoscroll
font size
0
reset
guitar tuner
Autoscroll
slow
fast
+/-
esc
set tempo
stop
Help us to improve Ultimate-Guitar.com Take our survey!
×
Author
Difficulty
novice
-------------------------------------------------------------------------------
                             D.T.A.P - Nephew
-------------------------------------------------------------------------------
Tabbed by: Mathiaes
E-mail: Mathiaes@msn.com

Tuning: EADG

No bass until (0:48)

Chorus x2
G|--------------|
D|--------------|
A|--------------|
E|--0000--3333--|

G|----------------|
D|----------------|
A|----------------|
E|--0000--333333--|

The next part starts at (1:48)

Chorus x2
G|--------------|
D|--------------|
A|--------------|
E|--0000--3333--|

G|----------------|
D|----------------|
A|----------------|
E|--0000--333333--|

Bla bla bla bla bla

G|------------------------------|
D|------------------------------|
A|--00000000--3333--5555--------|
E|------------------------0-----|

Breakdown (2:27)
G|-----------------|
D|-----------------|
A|-----3~--2~------|
E|--3~---------0---|

G|-----------------|
D|-----------------|
A|-----3~--2~------|
E|--3~---------0---|

G|-----------------|
D|-----------------|
A|-----3~--2~------|
E|--3~---------0~--|

Outro (3:00)

G|--------------------------|
D|--------------------------|
A|--00000000--3333--5555----|
E|--------------------------|

G|------------------------------|
D|------------------------------|
A|----------5-5---------3333----|
E|--000000---3-3--3333----------|

G|---------------------------|
D|---------------------------|
A|--00000000--3333--5555-----|
E|------------------------0--|


===============================================================================
Suggest correction
Give kudos to tab author, rate the tab!
1 2 3 4 5
comments
print report bad tab
guest
You may want to rate the tab now too:
select rating
Wanna post a correction for this tab? Suggest correction