Oops, an error
Loading. Please wait.

Gong Gong Bass Tab

773 views 1 this week
no commentswrite comment
1 2 3 4 5
2 more votes to show rating
add to favorites
launch autoscroll
font size
0
reset
guitar tuner
Autoscroll
slow
fast
+/-
esc
set tempo
stop
Help us to improve Ultimate-Guitar.com Take our survey!
×
Author
-------------------------------------------------------------------------------
			     Gong Gong- Nephew
-------------------------------------------------------------------------------

Tabbed By : Mathiaes
e-mail: Mathiaes@msn.com

Tuning: standar EADG


 Short guitar intro then
G|-------------------|
D|-3-3-3-6-6---------|
A|-------------------|
E|-------------------|

 Intro
G|----------------|
D|----------------|
A|-3--3-1-1-1-4-4-|
E|----------------| x7

 Then
G|-------------------|
D|------3-3-3-6-6----|
A|-3--3-----------3~\|
E|-------------------| x1

 Verse
G|------------------------------------------------|
D|-10-10108h10-10-10108---------------------------|
A|---------------------8\11-11/6\8-8--------------|
E|----------------------------------8\11-11/6\8-8-| x4

 Play this at the end of the guitar part
G|----------|
D|-3-3-3-66-|
A|----------|
E|----------|

G|----------------|
D|----------------|
A|-3--3-1-1-1-4-4-|
E|----------------| x3

 Then
G|----------------|
D|------3-3-3-6-6-|
A|-3--3-----------|
E|----------------| x1

 Chorus
G|--------------------------------------------------------------------|
D|--------------------------------------------------------------------|
A|--------------------------------------------------------------------|
E|-4-4-4-4-4-4-4-4-4-4-4-4-4-11-11-11-8-8-8-8-8-8-8-8-8-8-8-8-8-8-8-8-|

G|--------------------------------------------------------------------|
D|--------------------------------------------------------------------|
A|-8-8-8-8-8-8-8-8-8-8-8-8-8-8-8-8-6-6-6-6-6-6-6-6-4-4-4-4-4-4-4-4-3~-|
E|--------------------------------------------------------------------|


 Verse x2
 Come in after two measures of vocal

 Verse modification x2
G|-----------------------------------------------------|
D|-10-10108h10-10-10108--------------------------------|
A|---------------------8\11-11/6\8-8-15\18-18/13\15-15-|
E|-----------------------------------------------------|

G|------------------------------------------------|
D|-10-10108h10-10-10108---------------------------|
A|---------------------8\11-11/6\8-8--------------|
E|----------------------------------8\11-11/6\8-8-|

 Prechorus modification
G|----------------------------|
D|----------------------------|
A|-3-3-4-4-41-1---------------|
E|--------------1-1-4-4--63-3-| x2

 Chorus

 End on
G|--------|
D|--------|
A|-3~-----|
E|--------|

| /  slide up
| \  slide down
| h  hammer-on
| p  pull-off
| ~  vibrato
| +  harmonic
| x  Mute note
Suggest correction
Give kudos to tab author, rate the tab!
1 2 3 4 5
comments
print report bad tab
guest
You may want to rate the tab now too:
select rating
Wanna post a correction for this tab? Suggest correction