Oops, an error
Loading. Please wait.

Hjertestarter Bass Tab

658 views 3 this week
no commentswrite comment
1 2 3 4 5
1 last vote to show rating
add to favorites
launch autoscroll
font size
0
reset
guitar tuner
Autoscroll
slow
fast
+/-
esc
set tempo
stop
Help us to improve Ultimate-Guitar.com Take our survey!
×
Author
Difficulty
novice
-----------------------------------------------------------------------------
                          Hjertestarter - Nephew
-----------------------------------------------------------------------------

    ______________________________
   / Nephew                      / Tabbed by: Bee-Ay
  / Hjertestarter               /
 / Hjertestarter 2012          / Tuning: Standard
/_____________________________/



Vers:
G|------------------|-------------------|------------------|
D|------------------|-------------------|------------------|
A|-1---------2---1--|--1--------2----1--|--1--------2----1-|
E|------3-----------|-------3-----------|------3-----------|

G|--------------------------------|
D|--------------------------------|
A|-1---/---10---14---13//1--------|
E|---------------------------1----|

Bro:
G|------------------------------------------------|
D|------------------------------------------------|
A|---------3---3-3-3-3-3-3/--10---/----15---------|
E|-3----------------------------------------------|

Omkvæd:
G|----------------|
D|*--------------*|
A|*-5---3--------*|
E|---------1---3--|

Outro-Omkvæd:
G|------------------------------------------------------------------|
D|*----------------------------------------------------------------*|
A|*-5-5-5-5-5-3-3--------------------------------------------------*|
E|----------------1-1-1-1-1-1-1-1-1-3-3-3-3-3-3-3-3-3-3-3-3-3-3-3-3-|

Sidste rundgang spilles denne varitaion:
G|-----------------------------------------------------------------------------------|
D|-----------------------------------------------------------------------------------|
A|-5-5-5-5-5-5-5-5-3-3-3-3-3-3-3-3-10-10-10-10-10-10-10-10-10-10-10-10-10-10-10-10-5-|
E|-----------------------------------------------------------------------------------|
Suggest correction
Give kudos to tab author, rate the tab!
1 2 3 4 5
comments
print report bad tab
guest
You may want to rate the tab now too:
select rating
Wanna post a correction for this tab? Suggest correction