Oops, an error
Loading. Please wait.

Secreto tab

17 views 1 this week
no commentswrite comment
1 2 3 4 5
3 more votes to show rating
add to favorites
×
Save as Personal and add changes to this tab that will be seen only by you. Learn more ›
×
You can save this tab as Personal to edit and correct it or add notes. All changes will be seen only by you. Learn more »
launch autoscroll
font size
0
reset
how to read this tab
guitar tuner
edit
Autoscroll
slow
fast
+/-
esc
set tempo
stop
intro: E F# C#m B (rep por 2 ),
    la segunda viola puntea sobre la base:


   E----------------------------------------------------
   a----------------------------------------------------
   D----------------------------------------------------  ¨por 2
   g-----------------6--6-6-4-6-4-4---------------------
   b----7-5-4-5--5-5------------------------------------
   m ---------------------------------------------------


  E       F#      C#m  B               E      F#  C#m B
  hoy te sorprendi    y vos no te dejabas conmover
                  E     F#     C#m B                  E    F#    C#m B
  un sentimiento guarda tu armason un secreto que hay en tu corazon
  A5        E5   D5
  un secreto tuyo
  A5    E5    D5
  que yo no se
  A5   E5  D5  A5   E5    D5
  cuentamelo   te escuchare      A5 E5 D5 E5   (Rep por 2)


  (sobre LA base : E F# C#m B  )


   E----------------------------------------------------
   a----------------------------------------------------
   D----------------------------------------------------  por 3
   g-----------------6--6-6-4-6-4-4---------------------
   b----7-5-4-5--5-5------------------------------------
   m ---------------------------------------------------

   rep y agrega


   E----------------------------------------------------
   a----------------------------------------------------
   d----------------------------------------------------
   g-------------------6--4-----------------------------
   b----7-5-4-5-4-5-4-----------------------------------
   m ---------------------------------------------------


  E     F#       C#m  B               E      F#    C#m B
  Cuando desperte     y vos ya no existias yo llore

  es trsite cuando entiedo con dolor ,que ahora solo

  habitas en mi interior

  A5        E5   D5
  un secreto tuyo
  A5   E5    D5
  que yo no se
  A5   E5  D5  A5   E5   D5
  cuentamelo   te escuhare


Espero que les guste
Suggest correction
Creating personal tab
Creating personal tab
You can edit any tab online and save it as your Personal.

You can edit, replace or remove any tab part or add personal notes – all changes will be seen only by you.

Personal tabs can be accessed anytime from any device, even offline.
Learn more »
Give kudos to tab author, rate the tab!
1 2 3 4 5
comments
print report bad tab
guest
Wanna post a correction for this tab? Suggest correction