Oops, an error
Loading. Please wait.

Do You Like Waffles tab

version 1
version 1

Whole song

Interactive

8,246 views 1 this week
3 commentsread comments
1 2 3 4 5
2 more votes to show rating
add to favorites
×
Save as Personal and add changes to this tab that will be seen only by you. Learn more ›
×
You can save this tab as Personal to edit and correct it or add notes. All changes will be seen only by you. Learn more »
launch autoscroll
font size
0
reset
how to read this tab
guitar tuner
edit
Autoscroll
slow
fast
+/-
esc
set tempo
stop
This is an awesome song.  Me and my friends decided to play it for our school's talent
show so I figured out the guitar part and here it is!  This song is really fun to play
and pretty easy once you get the beat down.  If you have never heard it visit this site
http://www.forthoseabouttoshop.com/waffles.php.  Very funny song, very fun and easy to
play, awesome guitar riff, enjoy this one and have fun with it.

Verse 1
|------------------------------------------------------------------|
|------------------------------------------------------------------|
|------------------------------------------------------------------|
|------------------------------------------------------------------|
|-----10--10--10--10--10----9---9---9---9---8--7-------------------|
|-----12--12--12--12--12---11--11--11--11--10--9-------------------|


This verse is played throughout the song
Verse 2
|------------------------------------------------|
|------------------------------------------------|
|------------------------------------------------|
|------------------------------------------------|
|-------------------------------------9--12------|
|-----5-5--9--12---10-10-10-10-------------------|

            
            
Suggest correction
Creating personal tab
Creating personal tab
You can edit any tab online and save it as your Personal.

You can edit, replace or remove any tab part or add personal notes – all changes will be seen only by you.

Personal tabs can be accessed anytime from any device, even offline.
Learn more »
Give kudos to tab author, rate the tab!
1 2 3 4 5
comments
print report bad tab
3 comments total.
0 reply
ponnightingale 170 Sep 08, 2007 10:27 AM

|------------------------------------------------------------------|
|------------------------------------------------------------------|
|------------------------------------------------------------------|
|------------------------------------------------------------------|
|-----10--10--10--10--10----9---9---9---9---8--7-------------------|
|-----12--12--12--12--12---11--11--11--11--10--9-------------------|


This ain't right, but the second riff is!

0 reply
Misfit_princess 21 Oct 16, 2007 01:47 AM

^ Second, thanks for posting but the first riff is wrong =(

+1 reply
spivs1020 143 Nov 22, 2007 02:55 PM

lmao i cant belive this is on ug. good 2nd rift but u should of wrote it
like

------------------------------------------------------------
--------------------------------------------------
----------
------------------------------------------------------------
---------------------------4---7--------------
--------------
------4--7------5-5-5-5-------------------------------------
-5-5--------------------------------------
------------------

just easier to play and omfg u did this for a talent show?

guest
You may want to rate the tab now too:
select rating
Wanna post a correction for this tab? Suggest correction