Oops, an error
Loading. Please wait.

Pantera Fans In Love chords

version 1
version 1

Whole song

  • Slightly modified to cater to solo acoustic guitar... Show more

Interactive

31 views 1 this week
no commentswrite comment
1 2 3 4 5
3 more votes to show rating
add to favorites
×
Save as Personal and add changes to this tab that will be seen only by you. Learn more ›
×
You can save this tab as Personal to edit and correct it or add notes. All changes will be seen only by you. Learn more »
launch autoscroll
font size
0
reset
transpose
0
reset
display chords
guitar tuner
edit
Autoscroll
slow
fast
+/-
esc
set tempo
stop
Author
About this tab version
Slightly modified to cater to solo acoustic guitar (in the full band, the bass fills a lot). Was this info helpful? Yes No
Strumming
There is no strumming pattern for this song yet. and get +5 IQ
[Intro Riff]
e|-5---3---5---3---5---3-2-3---2-3-|-5---3---5---3---5---3-2-3-2-0-2-|
B|-------3-------3-----------------|-------3-------3-----------------|
G|---------------------------------|---------------------------------|
D|---------------------------------|---------------------------------|
A|---------------------------------|---------------------------------|
E|---------------------------------|---------------------------------|

[Verse 1]
G D           Em        D          C
I bleached my hair just like Vince Neil
                 Em          D        G
Then you made me cut it like James Hetfield
      D            Em       D         C
We're gonna put an end to alternative rock
                    Em           D       
We'll find a way to make the Cranberries stop
G          D         Em          D         C
We went to Sears for pictures at Christmas time
                  Em              D     G    D Em C
But they wouldn't let us make the metal sign
   C             G               Bm    D
No they wouldn't let us make the metal sign

[Chorus]
C                                 D
I'll bring the wine you bring the bread and cheese
     G       D *             Em
It's hard to eat when you're headbanging
C                 D
Makin' out in the middle of the pit
G        D *            Em
How come Slayer doesn't sing about this
   C                      D
If anything comes between you and me
     G           D *            Em
Then heavy metal heaven, that's where we'll meet
   C      D            **
We are Pantera fans in love

[Intro Riff]
e|-5---3---5---3---5---3-2-3---2-3-|-5---3---5---3---5---3-2-3-2-0-2-|
B|-------3-------3-----------------|-------3-------3-----------------|
G|---------------------------------|---------------------------------|
D|---------------------------------|---------------------------------|
A|---------------------------------|---------------------------------|
E|---------------------------------|---------------------------------|

[Verse 2]
G                 D         Em          D          C
What's with these punk rock nerds, they can't even sing
                  Em       D      G
I wish we'd never heard of The Offspring
  D         Em      D                 C
A candlelit dinner, now we're holding hands
                    Em              D
I taught you how to draw your first pentagram
G       D          Em            D          C
We went miniature golfing but we didn't get far
                    Em            D      G   D Em C
Because we used the clubs to play air guitar
   C           G             Bm     D
Oh we used the clubs to play air guitar

[Chorus]
C                                 D
I'll bring the wine you bring the bread and cheese
     G       D *             Em
It's hard to eat when you're headbanging
C                 D
Makin' out in the middle of the pit
G        D *            Em
How come Slayer doesn't sing about this
   C                      D
If anything comes between you and me
     G           D *            Em
Then heavy metal heaven, that's where we'll meet
   C      D            G    D Em C
We are Pantera fans in love

   G      Em     D            **
We are we are Pantera fans in love

[Intro Riff]
e|-5---3---5---3---5---3-2-3---2-3-|-5---3---5---3---5---3-2-3-2-0-2-|
B|-------3-------3-----------------|-------3-------3-----------------|
G|---------------------------------|---------------------------------|
D|---------------------------------|---------------------------------|
A|---------------------------------|---------------------------------|
E|---------------------------------|---------------------------------|

[Outro]
C              D
We saw Ozzy on our first date
G                   Em
Our special song is Crazy Train
C                 D
Makin' out in the middle of the pit
G                       Em
How come Slayer doesn't sing about this
C                         D
If anything comes between you and me
     G                          Em
Then heavy metal heaven, that's where we'll meet
   C     D
We are Metallica fans
   C   D
We are Megadeth fans
   C   D               C
We are Manowar fans in love
          D            G
We are Pantera fans in love

D * - These are subtle in the recording and you may find it flows better not to play them.

            
            
Suggest correction
Creating personal tab
Creating personal tab
You can edit any tab online and save it as your Personal.

You can edit, replace or remove any tab part or add personal notes – all changes will be seen only by you.

Personal tabs can be accessed anytime from any device, even offline.
Learn more »
Give kudos to tab author, rate the tab!
1 2 3 4 5
comments
print report bad tab
guest
You may want to rate the tab now too:
select rating
Wanna post a correction for this tab? Suggest correction