Oops, an error
Loading. Please wait.

Promises Tab

version 1
version 1

Whole song

Interactive

by Nero
22 views 1 this week
no commentswrite comment
1 2 3 4 5
3 more votes to show rating
add to favorites
launch autoscroll
font size
0
reset
how to read this tab
guitar tuner
Autoscroll
slow
fast
+/-
esc
set tempo
stop
Help us to improve Ultimate-Guitar.com Take our survey!
×
Author
Difficulty
Tuning
novice
D A D G B E
Tuning: DADGBE 

[Guitar 1]
(Synth 1)

[Intro]
E|-5-----------|
B|----5--------|
G|--------7--5-| x4
D|-------------|
A|-------------|
E|-------------|

[Verse 1]
E|-------------|  |---------|
B|-------------|  |---------|
G|-------------|  |---------|
D|-3--7---0--7-|x3|-7-------|
A|-3--7---0--7-|  |-7-------|
D|-3--7---0--7-|  |-7-------|

[Chorus]
E|----------------------|
B|----------------------|
G|----------------------|
D|-3-0--7--7---3-0--7-7-|
A|-3-0--7--7---3-0--7-7-|
D|-3-0--7--7---3-0--7-7-|

[Bridge]
E|------|  |------------------|
B|------|  |------------------|
G|------|  |------------------|
D|-3--7-|x3|-0--7--3--7-7-7-7-|
A|-3--7-|  |-0--7--3--7-7-7-7-|
D|-3--7-|  |-0--7--3--7-7-7-7-|

[Chorus]
E|----------------------|
B|----------------------|
G|----------------------|
D|-3-0--7--7---3-0--7-7-|
A|-3-0--7--7---3-0--7-7-|
D|-3-0--7--7---3-0--7-7-|

[Guitar 2] 
(synth 2)
[Very end of verse 1]
E|-------|
B|-3---5-|
G|-------|
D|-------|
A|-------|
E|-------|

[Chorus] 
E|-13-15-17-(17)-|
B|---------------|  
G|---------------| x4
D|---------------|
A|---------------|
D|---------------|

[Bridge] 
(wasted on myself)
E|-13-13-12-12-13-13-12-12-----------------|-12-12-------------12-12-|
B|-------------------------11-11-10-10-----|-------11-11-10-10-------|
G|-------------------------------------7-7-|-------------------------|
D|-----------------------------------------|-------------------------|
A|-----------------------------------------|-------------------------|
E|-----------------------------------------|-------------------------|


************************************

| x    Dead note
| (n)  Ghost note

************************************
Suggest correction
Give kudos to tab author, rate the tab!
1 2 3 4 5
comments
print report bad tab
guest
You may want to rate the tab now too:
select rating
Wanna post a correction for this tab? Suggest correction