Oops, an error
Loading. Please wait.

Cyberwar tab

by Nervosa
245 views 6 this week
1 commentread comment
1 2 3 4 5
3 more votes to show rating
add to favorites
×
Save as Personal and add changes to this tab that will be seen only by you. Learn more ›
×
You can save this tab as Personal to edit and correct it or add notes. All changes will be seen only by you. Learn more »
launch autoscroll
font size
0
reset
how to read this tab
guitar tuner
edit
Autoscroll
slow
fast
+/-
esc
set tempo
stop
Author
Artist: Nervosa
Song: Cyberwar
Album: Agony
Year: 2016
Tabbed by: antichris666

Tuning: C F A# D# G C

[Intro]

C |-------------------------------------------|
G |-------------------------------------------|
D#|-------------------------------------------|
A#|----7----8-8-7----8-8-7----8-8-7---------8-|
F |----5----6-6-5----6-6-5----6-6-5--8--10--6-|
C |----------------------------------6--8-----|

[Verse]

C |-------------------------------------------------------------------------------------------------------|
G |-------------------------------------------------------------------------------------------------------|
D#|-------------------------------------------------------------------------------------------------------|
A#|-7-----------7-----------8--8--7-----------7-----------8--8--7-----------7-----------8--8--7---------8-|
F |-5--5-5-5-5--5--5-5-5-5--6--6--5--5-5-5-5--5-—5-5-5-5--6--6--5--5-5-5-5--5--5-5-5-5--6--6--5--8--10--6-| 
C |----------------------------------------------------------------------------------------------6--8-----|
       . . . .     . . . .           . . . .     . . . .           . . . .     . . . . 
  
C |-------------------------------------------------------------------------------------------------------|
G |-------------------------------------------------------------------------------------------------------|
D#|-------------------------------------------------------------------------------------------------------|
A#|-7-----------7-----------8--8--7-----------7-----------8--8--7-----------7-----------8--8--7---------8-|
F |-5--5-5-5-5--5--5-5-5-5--6--6--5--5-5-5-5--5-—5-5-5-5--6--6--5--5-5-5-5--5--5-5-5-5--6--6--5--8--10--6-| 
C |----------------------------------------------------------------------------------------------6--8-----|
       . . . .     . . . .           . . . .     . . . .           . . . .     . . . . 
  
C |-------------------------------------------------------------------------------------------------------|
G |-------------------------------------------------------------------------------------------------------|
D#|-------------------------------------------------------------------------------------------------------|
A#|-7-----------7-----------8--8--7-----------7-----------8--8--7-----------7-----------8--8--7---------8-|
F |-5--5-5-5-5--5--5-5-5-5--6--6--5--5-5-5-5--5-—5-5-5-5--6--6--5--5-5-5-5--5--5-5-5-5--6--6--5--8--10--6-| 
C |----------------------------------------------------------------------------------------------6--8-----|
       . . . .     . . . .           . . . .     . . . .           . . . .     . . . . 
  
[Chorus]

C |---------------------------------------------------------|
G |---------------------------------------------------------| 
D#|---------------------------------------------------------|
A#|-5---------------5---------------5---------------7--7--7-|
F |-3—-0-0-0-0-0-0--3--0-0-0-0-0-0--3--0-0-0-0-0-0-—5--5--5-|
C |---------------------------------------------------------|
       . . . . . .     . . . . . .     . . . . . .      
      
C |---------------------------------------------------------------------|
G |---------------------------------------------------------------------| 
D#|---------------------------------------------------------------------|
A#|-5---------------5---------------5-----------------------------------|
F |-3—-0-0-0-0-0-0--3--0-0-0-0-0-0--3--0-0-0-0-0-0-—7--7--5--5--7--7--5-|
C |-------------------------------------------------5--5--3--3--5--5--3-|
       . . . . . .     . . . . . .     . . . . . .      
   
C |---------------------------------------------------------|
G |---------------------------------------------------------| 
D#|---------------------------------------------------------|
A#|-5---------------5---------------5---------------7--7--7-|
F |-3—-0-0-0-0-0-0--3--0-0-0-0-0-0--3--0-0-0-0-0-0-—5--5--5-|
C |---------------------------------------------------------|
       . . . . . .     . . . . . .     . . . . . .      
      
C |---------------------------------------------------------------------|
G |---------------------------------------------------------------------| 
D#|---------------------------------------------------------------------|
A#|-5---------------5---------------5-----------------------------------|
F |-3—-0-0-0-0-0-0--3--0-0-0-0-0-0--3--0-0-0-0-0-0-—7--7--5--5--7--7--5-|
C |-------------------------------------------------5--5--3--3--5--5--3-|
       . . . . . .     . . . . . .     . . . . . .      
   
C |-------------------------------------------------------|
G |-------------------------------------------------------|
D#|-------------------------------------------------------|
A#|--------------------------9--------------------------7-|
F |—-------------------------7--------------------------5-|
C |—7-7-7-7-7-7-7-7-7-7-7-7----5-5-5-5-5-5-5-5-5-5-5-5----|
    . . . . . . . . . . . .    . . . . . . . . . . . .           
   
C |-------------------------------------------------------------|
G |-------------------------------------------------------------|
D#|-------------------------------------------------------------|
A#|--------------------------5----------------------------------|
F |--------------------------3--2-2—2-2-2-2-2-2-2-2-2-2-2-2-2-2-|
C |-3-3-3-3-3-3-3-3-3-3-3-3-------------------------------------|
    . . . . . . . . . . . .     . . . . . . . . . . . . . . . .
     
C |-------------------------------------------------------|
G |-------------------------------------------------------|
D#|-------------------------------------------------------|
A#|--------------------------9--------------------------7-|
F |—-------------------------7--------------------------5-|
C |—7-7-7-7-7-7-7-7-7-7-7-7----5-5-5-5-5-5-5-5-5-5-5-5----|
    . . . . . . . . . . . .    . . . . . . . . . . . .           
   
C |-------------------------------------------------------------|
G |-------------------------------------------------------------|
D#|-------------------------------------------------------------|
A#|--------------------------5----------------------------------|
F |--------------------------3--2-2—2-2-2-2-2-2-2-2-2-2-2-2-2-2-|
C |-3-3-3-3-3-3-3-3-3-3-3-3-------------------------------------|
    . . . . . . . . . . . .     . . . . . . . . . . . . . . . .
     
[Chorus]

C |---------------------------------------------------------|
G |---------------------------------------------------------| 
D#|---------------------------------------------------------|
A#|-5---------------5---------------5---------------7--7--7-|
F |-3—-0-0-0-0-0-0--3--0-0-0-0-0-0--3--0-0-0-0-0-0-—5--5--5-|
C |---------------------------------------------------------|
       . . . . . .     . . . . . .     . . . . . .      
      
C |---------------------------------------------------------------------|
G |---------------------------------------------------------------------| 
D#|---------------------------------------------------------------------|
A#|-5---------------5---------------5-----------------------------------|
F |-3—-0-0-0-0-0-0--3--0-0-0-0-0-0--3--0-0-0-0-0-0-—7--7--5--5--7--7--5-|
C |-------------------------------------------------5--5--3--3--5--5--3-|
       . . . . . .     . . . . . .     . . . . . .      
   
C |---------------------------------------------------------|
G |---------------------------------------------------------| 
D#|---------------------------------------------------------|
A#|-5---------------5---------------5---------------7--7--7-|
F |-3—-0-0-0-0-0-0--3--0-0-0-0-0-0--3--0-0-0-0-0-0-—5--5--5-|
C |---------------------------------------------------------|
       . . . . . .     . . . . . .     . . . . . .      
      
C |---------------------------------------------------------------------|
G |---------------------------------------------------------------------| 
D#|---------------------------------------------------------------------|
A#|-5---------------5---------------5-----------------------------------|
F |-3—-0-0-0-0-0-0--3--0-0-0-0-0-0--3--0-0-0-0-0-0-—7--7--5--5--7--7--5-|
C |-------------------------------------------------5--5--3--3--5--5--3-|
       . . . . . .     . . . . . .     . . . . . .      
   
[Verse]

C |-------------------------------------------------------------------------------------------------------|
G |-------------------------------------------------------------------------------------------------------|
D#|-------------------------------------------------------------------------------------------------------|
A#|-7-----------7-----------8--8--7-----------7-----------8--8--7-----------7-----------8--8--7---------8-|
F |-5--5-5-5-5--5--5-5-5-5--6--6--5--5-5-5-5--5-—5-5-5-5--6--6--5--5-5-5-5--5--5-5-5-5--6--6--5--8--10--6-| 
C |----------------------------------------------------------------------------------------------6--8-----|
       . . . .     . . . .           . . . .     . . . .           . . . .     . . . . 
  
C |-------------------------------------------------------------------------------------------------------|
G |-------------------------------------------------------------------------------------------------------|
D#|-------------------------------------------------------------------------------------------------------|
A#|-7-----------7-----------8--8--7-----------7-----------8--8--7-----------7-----------8--8--7---------8-|
F |-5--5-5-5-5--5--5-5-5-5--6--6--5--5-5-5-5--5-—5-5-5-5--6--6--5--5-5-5-5--5--5-5-5-5--6--6--5--8--10--6-| 
C |----------------------------------------------------------------------------------------------6--8-----|
       . . . .     . . . .           . . . .     . . . .           . . . .     . . . . 
  
C |-------------------------------------------------------------------------------------------------------|
G |-------------------------------------------------------------------------------------------------------|
D#|-------------------------------------------------------------------------------------------------------|
A#|-7-----------7-----------8--8--7-----------7-----------8--8--7-----------7-----------8--8--7---------8-|
F |-5--5-5-5-5--5--5-5-5-5--6--6--5--5-5-5-5--5-—5-5-5-5--6--6--5--5-5-5-5--5--5-5-5-5--6--6--5--8--10--6-| 
C |----------------------------------------------------------------------------------------------6--8-----|
       . . . .     . . . .           . . . .     . . . .           . . . .     . . . . 
  
[Chorus]

C |---------------------------------------------------------|
G |---------------------------------------------------------| 
D#|---------------------------------------------------------|
A#|-5---------------5---------------5---------------7--7--7-|
F |-3—-0-0-0-0-0-0--3--0-0-0-0-0-0--3--0-0-0-0-0-0-—5--5--5-|
C |---------------------------------------------------------|
       . . . . . .     . . . . . .     . . . . . .      
      
C |---------------------------------------------------------------------|
G |---------------------------------------------------------------------| 
D#|---------------------------------------------------------------------|
A#|-5---------------5---------------5-----------------------------------|
F |-3—-0-0-0-0-0-0--3--0-0-0-0-0-0--3--0-0-0-0-0-0-—7--7--5--5--7--7--5-|
C |-------------------------------------------------5--5--3--3--5--5--3-|
       . . . . . .     . . . . . .     . . . . . .      
   
C |---------------------------------------------------------|
G |---------------------------------------------------------| 
D#|---------------------------------------------------------|
A#|-5---------------5---------------5---------------7--7--7-|
F |-3—-0-0-0-0-0-0--3--0-0-0-0-0-0--3--0-0-0-0-0-0-—5--5--5-|
C |---------------------------------------------------------|
       . . . . . .     . . . . . .     . . . . . .      
      
C |---------------------------------------------------------------------|
G |---------------------------------------------------------------------| 
D#|---------------------------------------------------------------------|
A#|-5---------------5---------------5-----------------------------------|
F |-3—-0-0-0-0-0-0--3--0-0-0-0-0-0--3--0-0-0-0-0-0-—7--7--5--5--7--7--5-|
C |-------------------------------------------------5--5--3--3--5--5--3-|
       . . . . . .     . . . . . .     . . . . . .      
   
C |-------------------------------------------------------|
G |-------------------------------------------------------|
D#|-------------------------------------------------------|
A#|--------------------------9--------------------------7-|
F |—-------------------------7--------------------------5-|
C |—7-7-7-7-7-7-7-7-7-7-7-7----5-5-5-5-5-5-5-5-5-5-5-5----|
    . . . . . . . . . . . .    . . . . . . . . . . . .           
   
C |-------------------------------------------------------------|
G |-------------------------------------------------------------|
D#|-------------------------------------------------------------|
A#|--------------------------5----------------------------------|
F |--------------------------3--2-2—2-2-2-2-2-2-2-2-2-2-2-2-2-2-|
C |-3-3-3-3-3-3-3-3-3-3-3-3-------------------------------------|
    . . . . . . . . . . . .     . . . . . . . . . . . . . . . .
   
C |-------------------------------------------------------|
G |-------------------------------------------------------|
D#|-------------------------------------------------------|
A#|--------------------------9--------------------------7-|
F |—-------------------------7--------------------------5-|
C |—7-7-7-7-7-7-7-7-7-7-7-7----5-5-5-5-5-5-5-5-5-5-5-5----|
    . . . . . . . . . . . .    . . . . . . . . . . . .           
   
C |-------------------------------------------------------------|
G |-------------------------------------------------------------|
D#|-------------------------------------------------------------|
A#|--------------------------5----------------------------------|
F |--------------------------3--2-2—2-2-2-2-2-2-2-2-2-2-2-2-2-2-|
C |-3-3-3-3-3-3-3-3-3-3-3-3-------------------------------------|
    . . . . . . . . . . . .     . . . . . . . . . . . . . . . .
   
[Solo Rhythm]

C |-------------------------------------------------------|
G |-------------------------------------------------------|
D#|-------------------------------------------------------|
A#|--------------------------9--------------------------7-|
F |—-------------------------7--------------------------5-|
C |—7-7-7-7-7-7-7-7-7-7-7-7----5-5-5-5-5-5-5-5-5-5-5-5----|
    . . . . . . . . . . . .    . . . . . . . . . . . .           
   
C |-------------------------------------------------------------|
G |-------------------------------------------------------------|
D#|-------------------------------------------------------------|
A#|--------------------------5----------------------------------|
F |--------------------------3--2-2—2-2-2-2-2-2-2-2-2-2-2-2-2-2-|
C |-3-3-3-3-3-3-3-3-3-3-3-3-------------------------------------|
    . . . . . . . . . . . .     . . . . . . . . . . . . . . . .
   
C |-------------------------------------------------------|
G |-------------------------------------------------------|
D#|-------------------------------------------------------|
A#|--------------------------9--------------------------7-|
F |—-------------------------7--------------------------5-|
C |—7-7-7-7-7-7-7-7-7-7-7-7----5-5-5-5-5-5-5-5-5-5-5-5----|
    . . . . . . . . . . . .    . . . . . . . . . . . .           
   
C |-------------------------------------------------------------|
G |-------------------------------------------------------------|
D#|-------------------------------------------------------------|
A#|--------------------------5----------------------------------|
F |--------------------------3--2-2—2-2-2-2-2-2-2-2-2-2-2-2-2-2-|
C |-3-3-3-3-3-3-3-3-3-3-3-3-------------------------------------|
    . . . . . . . . . . . .     . . . . . . . . . . . . . . . .
   
C |-------------------------------------------------------|
G |-------------------------------------------------------|
D#|-------------------------------------------------------|
A#|--------------------------9--------------------------7-|
F |—-------------------------7--------------------------5-|
C |—7-7-7-7-7-7-7-7-7-7-7-7----5-5-5-5-5-5-5-5-5-5-5-5----|
    . . . . . . . . . . . .    . . . . . . . . . . . .           
   
C |-------------------------------------------------------------|
G |-------------------------------------------------------------|
D#|-------------------------------------------------------------|
A#|--------------------------5----------------------------------|
F |--------------------------3--2-2—2-2-2-2-2-2-2-2-2-2-2-2-2-2-|
C |-3-3-3-3-3-3-3-3-3-3-3-3-------------------------------------|
    . . . . . . . . . . . .     . . . . . . . . . . . . . . . .
   
C |-------------------------------------------------------|
G |-------------------------------------------------------|
D#|-------------------------------------------------------|
A#|--------------------------9--------------------------7-|
F |—-------------------------7--------------------------5-|
C |—7-7-7-7-7-7-7-7-7-7-7-7----5-5-5-5-5-5-5-5-5-5-5-5----|
    . . . . . . . . . . . .    . . . . . . . . . . . .           
   
C |-------------------------------------------------------------|
G |-------------------------------------------------------------|
D#|-------------------------------------------------------------|
A#|--------------------------5----------------------------------|
F |--------------------------3--2-2—2-2-2-2-2-2-2-2-2-2-2-2-2-2-|
C |-3-3-3-3-3-3-3-3-3-3-3-3-------------------------------------|
    . . . . . . . . . . . .     . . . . . . . . . . . . . . . .
  
[Solo]

C |------------------------------------------------------------------------------------|
G |-9p7h9p7h9p7h9p7h9p7h9p7h9p\--7p5h7p5h7p5h7p5h7p5h7p\--5p3h5p3h5p3h5p3h5p3h5/----12-|
D#|------------------------------------------------------------------------------------|
A#|------------------------------------------------------------------------------------|
F |------------------------------------------------------------------------------------|
C |------------------------------------------------------------------------------------|
  
C |--------------------------------------------------------------------|
G |-12-12-12-12--14--12-12-12-12--15--12-12-12-12--14--12-12-12-12--15-|
D#|--------------------------------------------------------------------|
A#|--------------------------------------------------------------------|
F |--------------------------------------------------------------------|
C |--------------------------------------------------------------------|

C |--------------------------------------------------------------------|
G |-12-12-12-12--14--12-12-12-12--15--12-12-12-12--14--12-12-12-12--15-|
D#|--------------------------------------------------------------------|
A#|--------------------------------------------------------------------|
F |--------------------------------------------------------------------|
C |--------------------------------------------------------------------|

C |-12-12-12-12--14--12-12-12-12--15--12-12-12-12--14--12-12-12-12--15--12-12-12-12----------------|
G |----------------------------------------------------------------------------------12--12--12----|
D#|------------------------------------------------------------------------------------------------|
A#|------------------------------------------------------------------------------------------------|
F |------------------------------------------------------------------------------------------------|
C |------------------------------------------------------------------------------------------------|

C |---------------------------------------------------------------------------------|
G |-5-7-7-7-7-7-5-7-7-7-7-7-7-7-7-7-7-5-7-7-7-7-7-5-7-7-7-7-7-5-7-7-7-7-7-7-7-7-7-7-|
D#|---------------------------------------------------------------------------------|
A#|---------------------------------------------------------------------------------|
F |---------------------------------------------------------------------------------|
C |---------------------------------------------------------------------------------|

C |---------------------------------------------------------------------------------|
G |-5-7-7-7-7-7-5-7-7-7-7-7-5-7-7-7-7-7-7-7-7-7-7-5-0-0-0-0-0-0-0-0-0-0-0-0-0-0-0-0-|
D#|---------------------------------------------------------------------------------|
A#|---------------------------------------------------------------------------------|
F |---------------------------------------------------------------------------------|
C |---------------------------------------------------------------------------------|

C |--------------------------------------------------------------------------------|
G |-0-0-0-0-0-0-0-0-0-0-0-0-0-0-0-0-0-0-0-0-0-0-0-0-0-0-0-0-0-0-0-0-0-0-0-0-0--/12-|
D#|--------------------------------------------------------------------------------|
A#|--------------------------------------------------------------------------------|
F |--------------------------------------------------------------------------------|
C |--------------------------------------------------------------------------------|

[Chorus]

C |---------------------------------------------------------|
G |---------------------------------------------------------| 
D#|---------------------------------------------------------|
A#|-5---------------5---------------5---------------7--7--7-|
F |-3—-0-0-0-0-0-0--3--0-0-0-0-0-0--3--0-0-0-0-0-0-—5--5--5-|
C |---------------------------------------------------------|
       . . . . . .     . . . . . .     . . . . . .      
      
C |---------------------------------------------------------------------|
G |---------------------------------------------------------------------| 
D#|---------------------------------------------------------------------|
A#|-5---------------5---------------5-----------------------------------|
F |-3—-0-0-0-0-0-0--3--0-0-0-0-0-0--3--0-0-0-0-0-0-—7--7--5--5--7--7--5-|
C |-------------------------------------------------5--5--3--3--5--5--3-|
       . . . . . .     . . . . . .     . . . . . .      
   
C |---------------------------------------------------------|
G |---------------------------------------------------------| 
D#|---------------------------------------------------------|
A#|-5---------------5---------------5---------------7--7--7-|
F |-3—-0-0-0-0-0-0--3--0-0-0-0-0-0--3--0-0-0-0-0-0-—5--5--5-|
C |---------------------------------------------------------|
       . . . . . .     . . . . . .     . . . . . .      
      
C |---------------------------------------------------------------------|
G |---------------------------------------------------------------------| 
D#|---------------------------------------------------------------------|
A#|-5---------------5---------------5-----------------------------------|
F |-3—-0-0-0-0-0-0--3--0-0-0-0-0-0--3--0-0-0-0-0-0-—7--7--5--5--7--7--5-|
C |-------------------------------------------------5--5--3--3--5--5--3-|
       . . . . . .     . . . . . .     . . . . . .      

C |---------------------------------------------------------|
G |---------------------------------------------------------| 
D#|---------------------------------------------------------|
A#|-5---------------5---------------5---------------7--7--7-|
F |-3—-0-0-0-0-0-0--3--0-0-0-0-0-0--3--0-0-0-0-0-0-—5--5--5-|
C |---------------------------------------------------------|
       . . . . . .     . . . . . .     . . . . . .      
      
C |---------------------------------------------------------------------|
G |---------------------------------------------------------------------| 
D#|---------------------------------------------------------------------|
A#|-5---------------5---------------5-----------------------------------|
F |-3—-0-0-0-0-0-0--3--0-0-0-0-0-0--3--0-0-0-0-0-0-—7--7--5--5--7--7--5-|
C |-------------------------------------------------5--5--3--3--5--5--3-|
       . . . . . .     . . . . . .     . . . . . .      
   
[Outro]

C |------------------------------------------------------|
G |------------------------------------------------------|
D#|------------------------------------------------------|
A#|-5---5---5----7--7--7----5---5---5--------------------|
F |-3---3---3----5--5--5----3---3---3----7--7--7--7----7-|
C |--------------------------------------5--3--5--5----5-|
     

************************************
| .   palm mute
| /   slide up
| \   slide down
| h   hammer-on
| p   pull-off
| ~   vibrato
| +   harmonic
| x   Mute note
| b   Bend
| pb  Pre-bend
| br  Bend release
| pbr Pre-bend release
| brb Bend release bend

************************************     

            
            
Suggest correction
Creating personal tab
Creating personal tab
You can edit any tab online and save it as your Personal.

You can edit, replace or remove any tab part or add personal notes – all changes will be seen only by you.

Personal tabs can be accessed anytime from any device, even offline.
Learn more »
Give kudos to tab author, rate the tab!
1 2 3 4 5
comments
print report bad tab
1 comment total.
0 reply
antichris666 855 Aug 15, 2016 05:35 AM

if you got requests, leave a comment.

guest
You may want to rate the tab now too:
select rating
Wanna post a correction for this tab? Suggest correction