Oops, an error
Loading. Please wait.

Death tab

version 2
version 2

Whole song

by Nervosa
463 views 6 this week
no commentswrite comment
1 2 3 4 5
1 last vote to show rating
add to favorites
×
Save as Personal and add changes to this tab that will be seen only by you. Learn more ›
×
You can save this tab as Personal to edit and correct it or add notes. All changes will be seen only by you. Learn more »
launch autoscroll
font size
0
reset
how to read this tab
guitar tuner
edit
Autoscroll
slow
fast
+/-
esc
set tempo
stop
Author
Artist: Nervosa
Song: Death
Album: Victim Of Yourself
Year: 2014
Tabbed by: antichris666

Tuning: C F A# D# G C 

[Intro]

C |----------------------------------------------------------------------------------------------------|
G |----------------------------------------------------------------------------------------------------|
D#|----------------------------------------------------------------------------------------------------|
A#|----------------------------------------------------------------------------------------------------|
F |-8\7--7-7--7-7-7--7-7-7--8\7--7-7--7-7-7--7-7-7--8\7--7-7--7-7-7--7-7-7--5-5-5--5-5-5--4-4-4--4-4-4-|
C |-6\5--5-5--5-5-5--5-5-5--6\5--5-5--5-5-5--5-5-5--6\5--5-5--5-5-5--5-5-5--3-3-3--3-3-3--2-2-2--2-2-2-|
         . .  . . .  . . .       . .  . . .  . . .       . .  . . .  . . .  . . .  . . .  . . .  . . .

C |----------------------------------------------------------------------------------------------------|
G |----------------------------------------------------------------------------------------------------|
D#|----------------------------------------------------------------------------------------------------|
A#|----------------------------------------------------------------------------------------------------|
F |-8\7--7-7--7-7-7--7-7-7--8\7--7-7--7-7-7--7-7-7--8\7--7-7--7-7-7--7-7-7--5-5-5--5-5-5--4-4-4--4-4-4-|
C |-6\5--5-5--5-5-5--5-5-5--6\5--5-5--5-5-5--5-5-5--6\5--5-5--5-5-5--5-5-5--3-3-3--3-3-3--2-2-2--2-2-2-|
         . .  . . .  . . .       . .  . . .  . . .       . .  . . .  . . .  . . .  . . .  . . .  . . .

C |----------------------------------------------------------------------------------------------------|
G |----------------------------------------------------------------------------------------------------|
D#|----------------------------------------------------------------------------------------------------|
A#|----------------------------------------------------------------------------------------------------|
F |-8\7--7-7--7-7-7--7-7-7--8\7--7-7--7-7-7--7-7-7--8\7--7-7--7-7-7--7-7-7--5-5-5--5-5-5--4-4-4--4-4-4-|
C |-6\5--5-5--5-5-5--5-5-5--6\5--5-5--5-5-5--5-5-5--6\5--5-5--5-5-5--5-5-5--3-3-3--3-3-3--2-2-2--2-2-2-|
         . .  . . .  . . .       . .  . . .  . . .       . .  . . .  . . .  . . .  . . .  . . .  . . .

C |---------------------------------------------------------------------|
G |---------------------------------------------------------------------|
D#|---------------------------------------------------------------------|
A#|---------------------------------------------------------------------|
F |-8\7--7-7-7-7-7-7--8\7--7-7-7-7-7-7--8\7--7-7-7-7--7--5-5--5--4-4--4-|
C |-6\5--5-5-5-5-5-5--6\5--5-5-5-5-5-5--6\5--5-5-5-5--5--3-3--3--2-2--2-|
         . . . . . .       . . . . . .       . . . .     . .     . .

[Verse]

C |------------------------------------------------------------------------------------------------|
G |------------------------------------------------------------------------------------------------|
D#|------------------------------------------------------------------------------------------------|
A#|------------------------------------------------------------------------------------------------|
F |-8\7--7-7--7-7-7--7-7-7--8\7--7-7--7-7-7--7-7-7--8\7--7-7--7-7-7--7-7-7--5-5-5-5--5--4-4-4-4--4-|
C |-6\5--5-5--5-5-5--5-5-5--6\5--5-5--5-5-5--5-5-5--6\5--5-5--5-5-5--5-5-5--3-3-3-3--3--2-2-2-2--2-|
         . .  . . .  . . .       . .  . . .  . . .       . .  . . .  . . .  . . . .     . . . .

C |------------------------------------------------------------------------------------------------|
G |------------------------------------------------------------------------------------------------|
D#|------------------------------------------------------------------------------------------------|
A#|------------------------------------------------------------------------------------------------|
F |-8\7--7-7--7-7-7--7-7-7--8\7--7-7--7-7-7--7-7-7--8\7--7-7--7-7-7--7-7-7--5-5-5-5--5--4-4-4-4--4-|
C |-6\5--5-5--5-5-5--5-5-5--6\5--5-5--5-5-5--5-5-5--6\5--5-5--5-5-5--5-5-5--3-3-3-3--3--2-2-2-2--2-|
         . .  . . .  . . .       . .  . . .  . . .       . .  . . .  . . .  . . . .     . . . .

C |------------------------------------------------------------------------------------------------|
G |------------------------------------------------------------------------------------------------|
D#|------------------------------------------------------------------------------------------------|
A#|------------------------------------------------------------------------------------------------|
F |-8\7--7-7--7-7-7--7-7-7--8\7--7-7--7-7-7--7-7-7--8\7--7-7--7-7-7--7-7-7--5-5-5-5--5--4-4-4-4--4-|
C |-6\5--5-5--5-5-5--5-5-5--6\5--5-5--5-5-5--5-5-5--6\5--5-5--5-5-5--5-5-5--3-3-3-3--3--2-2-2-2--2-|
         . .  . . .  . . .       . .  . . .  . . .       . .  . . .  . . .  . . . .     . . . .

C |------------------------------------------------------------------------------------------------|
G |------------------------------------------------------------------------------------------------|
D#|------------------------------------------------------------------------------------------------|
A#|------------------------------------------------------------------------------------------------|
F |-8\7--7-7--7-7-7--7-7-7--8\7--7-7--7-7-7--7-7-7--8\7--7-7--7-7-7--7-7-7--5-5-5-5--5--4-4-4-4--4-|
C |-6\5--5-5--5-5-5--5-5-5--6\5--5-5--5-5-5--5-5-5--6\5--5-5--5-5-5--5-5-5--3-3-3-3--3--2-2-2-2--2-|
         . .  . . .  . . .       . .  . . .  . . .       . .  . . .  . . .  . . . .     . . . .

C |----------------------------------------------------------------------------------|
G |----------------------------------------------------------------------------------|
D#|----------------------------------------------------------------------------------|
A#|----------------------2---------------------1---------------------2-0-1-0---------|
F |--------------------------------------------------------------------------2-0-1-0-|
C |-0--0-0--0-0-0--0-0-0----0-0--0-0-0--0-0-0-----0-0--0-0-0--0-0-0------------------|
       . .  . . .  . . .    . .  . . .  . . .     . .  . . .  . . . 

C |-----------------------------------------------------------------------------------|
G |-----------------------------------------------------------------------------------|
D#|-----------------------------------------------------------------------------------|
A#|-----------------------2---------------------1---------------------2-0-1-0---------|
F |-2-------------------------------------------------------------------------2-0-1-0-|
C |----0-0--0-0-0--0-0-0-----0-0--0-0-0--0-0-0-----0-0--0-0-0--0-0-0------------------|
       . .  . . .  . . .     . .  . . .  . . .     . .  . . .  . . . 

C |-------------------------------------------------------------------------------------------------|
G |-------------------------------------------------------------------------------------------------|
D#|-------------------------------------------------------------------------------------------------|
A#|-------------------------------------------------------------------------------------------------|
F |-0-0-0-0-0-0-0-0-0-0-0-0-3-3-3-3-3-3-2-2-2-2-2-2-------------------------------------1-1-1-1-1-1-|
C |-------------------------------------------------0-0-0-0-0-0-0-0-0-0-0-0-3-3-3-3-3-3-------------|

C |-------------------------------------------------------------------------------------------------|
G |-------------------------------------------------------------------------------------------------|
D#|-------------------------------------------------------------------------------------------------|
A#|-------------------------------------------------------------------------------------------------|
F |-0-0-0-0-0-0-0-0-0-0-0-0-3-3-3-3-3-3-2-2-2-2-2-2-------------------------------------1-1-1-1-1-1-|
C |-------------------------------------------------0-0-0-0-0-0-0-0-0-0-0-0-3-3-3-3-3-3-------------|

[Chorus]

C |----------------------------------------------------------------------------------------------|
G |----------------------------------------------------------------------------------------------|
D#|----------------------------------------------------------------------------------------------|
A#|----------------------------------------------------------------------------------------------|
F |-2---------------------2---------------------2---------------------9-9-9--8-8-8--7-7-7--7-7-7-|
C |-0--0-0--0-0-0--0-0-0--0--0-0--0-0-0--0-0-0--0--0-0--0-0-0--0-0-0--7-7-7--6-6-6--5-5-5--5-5-5-|
       . .  . . .  . . .     . .  . . .  . . .     . .  . . .  . . .  . . .  . . .  . . .  . . . 

C |----------------------------------------------------------------------------------------------|
G |----------------------------------------------------------------------------------------------|
D#|----------------------------------------------------------------------------------------------|
A#|----------------------------------------------------------------------------------------------|
F |-2---------------------2---------------------2---------------------9-9-9--8-8-8--7-7-7--7-7-7-|
C |-0--0-0--0-0-0--0-0-0--0--0-0--0-0-0--0-0-0--0--0-0--0-0-0--0-0-0--7-7-7--6-6-6--5-5-5--5-5-5-|
       . .  . . .  . . .     . .  . . .  . . .     . .  . . .  . . .  . . .  . . .  . . .  . . . 

C |-------------------------------------------------------------------|
G |-------------------------------------------------------------------|
D#|-------------------------------------------------------------------|
A#|-------------------------------------------------10-10-10-10-10-10-|
F |-------------------------12-12-12-12-11-11-11-11-------------------|
C |-0-0-0-0-0-0-0-0-0-0-0-0-------------------------------------------|

C |-----------------------------------------------------|
G |-----------------------------------------------------|
D#|-----------------------------------------------------|
A#|-----------------------------------------------------|
F |-----------------------------------------1-1-1-1-1-1-|
C |-0-0-0-0-0-0-0-0-0-0-0-0-3-3-3-3-1-1-1-1-------------|

C |-------------------------------------------------------------------|
G |-------------------------------------------------------------------|
D#|-------------------------------------------------------------------|
A#|-------------------------------------------------10-10-10-10-10-10-|
F |-------------------------12-12-12-12-11-11-11-11-------------------|
C |-0-0-0-0-0-0-0-0-0-0-0-0-------------------------------------------|

C |-----------------------------------------------------|
G |-----------------------------------------------------|
D#|-----------------------------------------------------|
A#|-----------------------------------------------------|
F |-----------------------------------------1-1-1-1-1-1-|
C |-0-0-0-0-0-0-0-0-0-0-0-0-3-3-3-3-1-1-1-1-------------|

[Chorus]

C |----------------------------------------------------------------------------------------------|
G |----------------------------------------------------------------------------------------------|
D#|----------------------------------------------------------------------------------------------|
A#|----------------------------------------------------------------------------------------------|
F |-2---------------------2---------------------2---------------------9-9-9--8-8-8--7-7-7--7-7-7-|
C |-0--0-0--0-0-0--0-0-0--0--0-0--0-0-0--0-0-0--0--0-0--0-0-0--0-0-0--7-7-7--6-6-6--5-5-5--5-5-5-|
       . .  . . .  . . .     . .  . . .  . . .     . .  . . .  . . .  . . .  . . .  . . .  . . . 

C |----------------------------------------------------------------------------------------------|
G |----------------------------------------------------------------------------------------------|
D#|----------------------------------------------------------------------------------------------|
A#|----------------------------------------------------------------------------------------------|
F |-2---------------------2---------------------2---------------------9-9-9--8-8-8--7-7-7--7-7-7-|
C |-0--0-0--0-0-0--0-0-0--0--0-0--0-0-0--0-0-0--0--0-0--0-0-0--0-0-0--7-7-7--6-6-6--5-5-5--5-5-5-|
       . .  . . .  . . .     . .  . . .  . . .     . .  . . .  . . .  . . .  . . .  . . .  . . . 

[Rhythm Solo]

C |----------------------------------------------------------------------------------|
G |----------------------------------------------------------------------------------|
D#|----------------------------------------------------------------------------------|
A#|-5\4---------5\4---------5\4--------------5\4---------5\4---------5\4-------------|
F |-3\2---------3\2---------3\2---------5-7--3\2---------3\2---------3\2---------5-7-|
C |------0-0-0-------0-0-0-------0-0-0--3-5-------0-0-0-------0-0-0-------0-0-0--3-5-|
         . . .       . . .       . . .            . . .       . . .       . . .

C |---------------------------------------------------------------------------------------------------------|
G |---------------------------------------------------------------------------------------------------------|
D#|---------------------------------------------------------------------------------------------------------|
A#|-5\4---------5\4---------5\4--------------5\4---------5\4---------5\4------------------------------------|
F |-3\2---------3\2---------3\2---------5-7--3\2---------3\2---------3\2---------5-7--3-3-3-3-3-3-3-3-3-3-3-|
C |------0-0-0-------0-0-0-------0-0-0--3-5-------0-0-0-------0-0-0-------0-0-0--3-5--1-1-1-1-1-1-1-1-1-1-1-|
         . . .       . . .       . . .            . . .       . . .       . . .       . . . . . . . . . . .

C |----------------------------------------------------------------------------------|
G |----------------------------------------------------------------------------------|
D#|----------------------------------------------------------------------------------|
A#|-5\4---------5\4---------5\4--------------5\4---------5\4---------5\4-------------|
F |-3\2---------3\2---------3\2---------5-7--3\2---------3\2---------3\2---------5-7-|
C |------0-0-0-------0-0-0-------0-0-0--3-5-------0-0-0-------0-0-0-------0-0-0--3-5-|
         . . .       . . .       . . .            . . .       . . .       . . .

C |----------------------------------------------------------------------------------|
G |----------------------------------------------------------------------------------|
D#|----------------------------------------------------------------------------------|
A#|-5\4---------5\4---------5\4--------------5\4---------5\4---------5\4-------------|
F |-3\2---------3\2---------3\2---------5-7--3\2---------3\2---------3\2---------5-7-|
C |------0-0-0-------0-0-0-------0-0-0--3-5-------0-0-0-------0-0-0-------0-0-0--3-5-|
         . . .       . . .       . . .            . . .       . . .       . . .

[Solo]

C |---------------------------------------15-15-15-15-----15-15-15-15-----15-15-15-15-----15-----15-----15-|
G |-5---5-8---8-7---7-8-7-5--5-4----5-4---------------18b-------------18b-------------18b----18b----18b----|
D#|--------------------------------------------------------------------------------------------------------|
A#|--------------------------------------------------------------------------------------------------------|
F |--------------------------------------------------------------------------------------------------------|
C |--------------------------------------------------------------------------------------------------------|

C |-17-17-17-17-17-17-17-17-17-17-17-17-15-15-15-15-15-15-15-15-15-15-15-15-14-14-14-14-14-14-14-14-|
G |-------------------------------------------------------------------------------------------------|
D#|-------------------------------------------------------------------------------------------------|
A#|-------------------------------------------------------------------------------------------------|
F |-------------------------------------------------------------------------------------------------|
C |-------------------------------------------------------------------------------------------------|

C |-3-5---3-2---2-3-2---2-3-5---5-7-9---9-12-15---17-15-|
G |-----------------------------------------------------|
D#|-----------------------------------------------------|
A#|-----------------------------------------------------|
F |-----------------------------------------------------|
C |-----------------------------------------------------|

C |-15t-12h14--15t-12h14--15t-12h14--15t-12h14--15t-12h14--15t-12h14--15t-12h14--15t-12h14-|
G |----------------------------------------------------------------------------------------|
D#|----------------------------------------------------------------------------------------|
A#|----------------------------------------------------------------------------------------|
F |----------------------------------------------------------------------------------------|
C |----------------------------------------------------------------------------------------|

C |-15t-12h14--15t-12h14--15t-12h14--15t-12h14---------------------------------------------|
G |---------------------------------------------15t-12h14--15t-12h14--15t-12h14--15t-12h14-|
D#|----------------------------------------------------------------------------------------|
A#|----------------------------------------------------------------------------------------|
F |----------------------------------------------------------------------------------------|
C |----------------------------------------------------------------------------------------|

C |-15t-12h14--15t-12h14--15t-12h14--15t-12h14--15t-12h14--15t-12h14--15t-12h14--15t-12h14-|
G |----------------------------------------------------------------------------------------|
D#|----------------------------------------------------------------------------------------|
A#|----------------------------------------------------------------------------------------|
F |----------------------------------------------------------------------------------------|
C |----------------------------------------------------------------------------------------|

C |-15t-12h14--15t-12h14--15t-12h14--15t-12h14---15--14--12-|
G |---------------------------------------------------------|
D#|---------------------------------------------------------|
A#|---------------------------------------------------------|
F |---------------------------------------------------------|
C |---------------------------------------------------------|

[Verse]

C |------------------------------------------------------------------------------------------------|
G |------------------------------------------------------------------------------------------------|
D#|------------------------------------------------------------------------------------------------|
A#|------------------------------------------------------------------------------------------------|
F |-8\7--7-7--7-7-7--7-7-7--8\7--7-7--7-7-7--7-7-7--8\7--7-7--7-7-7--7-7-7--5-5-5-5--5--4-4-4-4--4-|
C |-6\5--5-5--5-5-5--5-5-5--6\5--5-5--5-5-5--5-5-5--6\5--5-5--5-5-5--5-5-5--3-3-3-3--3--2-2-2-2--2-|
         . .  . . .  . . .       . .  . . .  . . .       . .  . . .  . . .  . . . .     . . . .

C |------------------------------------------------------------------------------------------------|
G |------------------------------------------------------------------------------------------------|
D#|------------------------------------------------------------------------------------------------|
A#|------------------------------------------------------------------------------------------------|
F |-8\7--7-7--7-7-7--7-7-7--8\7--7-7--7-7-7--7-7-7--8\7--7-7--7-7-7--7-7-7--5-5-5-5--5--4-4-4-4--4-|
C |-6\5--5-5--5-5-5--5-5-5--6\5--5-5--5-5-5--5-5-5--6\5--5-5--5-5-5--5-5-5--3-3-3-3--3--2-2-2-2--2-|
         . .  . . .  . . .       . .  . . .  . . .       . .  . . .  . . .  . . . .     . . . .

C |-------------------------------------------------------------|
G |-------------------------------------------------------------|
D#|-------------------------------------------------------------|
A#|-------------------------------------------------------------|
F |-8\7--7-7--7-7--8\7--7-7--7-7--8\7--7-7--7-7--5-5--5--4-4--4-|
C |-6\5--5-5--5-5--6\5--5-5--5-5--6\5--5-5--5-5--3-3--3--2-2--2-|
         . .            . .            . .       . .     . .    

C |-------------------------------------------------------------|
G |-------------------------------------------------------------|
D#|-------------------------------------------------------------|
A#|-------------------------------------------------------------|
F |-8\7--7-7--7-7--8\7--7-7--7-7--8\7--7-7--7-7--5-5--5--4-4--4-|
C |-6\5--5-5--5-5--6\5--5-5--5-5--6\5--5-5--5-5--3-3--3--2-2--2-|
         . .            . .            . .       . .     . .    

C |----------------------------------------------------------------------------------|
G |----------------------------------------------------------------------------------|
D#|----------------------------------------------------------------------------------|
A#|----------------------2---------------------1---------------------2-0-1-0---------|
F |--------------------------------------------------------------------------2-0-1-0-|
C |-0--0-0--0-0-0--0-0-0----0-0--0-0-0--0-0-0-----0-0--0-0-0--0-0-0------------------|
       . .  . . .  . . .    . .  . . .  . . .     . .  . . .  . . . 

C |-----------------------------------------------------------------------------------|
G |-----------------------------------------------------------------------------------|
D#|-----------------------------------------------------------------------------------|
A#|-----------------------2---------------------1---------------------2-0-1-0---------|
F |-2-------------------------------------------------------------------------2-0-1-0-|
C |----0-0--0-0-0--0-0-0-----0-0--0-0-0--0-0-0-----0-0--0-0-0--0-0-0------------------|
       . .  . . .  . . .     . .  . . .  . . .     . .  . . .  . . . 

C |-------------------------------------------------------------------------------------------------|
G |-------------------------------------------------------------------------------------------------|
D#|-------------------------------------------------------------------------------------------------|
A#|-------------------------------------------------------------------------------------------------|
F |-0-0-0-0-0-0-0-0-0-0-0-0-3-3-3-3-3-3-2-2-2-2-2-2-------------------------------------1-1-1-1-1-1-|
C |-------------------------------------------------0-0-0-0-0-0-0-0-0-0-0-0-3-3-3-3-3-3-------------|

C |-------------------------------------------------------------------------------------------------|
G |-------------------------------------------------------------------------------------------------|
D#|-------------------------------------------------------------------------------------------------|
A#|-------------------------------------------------------------------------------------------------|
F |-0-0-0-0-0-0-0-0-0-0-0-0-3-3-3-3-3-3-2-2-2-2-2-2-------------------------------------1-1-1-1-1-1-|
C |-------------------------------------------------0-0-0-0-0-0-0-0-0-0-0-0-3-3-3-3-3-3-------------|

[Chorus]

C |----------------------------------------------------------------------------------------------|
G |----------------------------------------------------------------------------------------------|
D#|----------------------------------------------------------------------------------------------|
A#|----------------------------------------------------------------------------------------------|
F |-2---------------------2---------------------2---------------------9-9-9--8-8-8--7-7-7--7-7-7-|
C |-0--0-0--0-0-0--0-0-0--0--0-0--0-0-0--0-0-0--0--0-0--0-0-0--0-0-0--7-7-7--6-6-6--5-5-5--5-5-5-|
       . .  . . .  . . .     . .  . . .  . . .     . .  . . .  . . .  . . .  . . .  . . .  . . . 

C |----------------------------------------------------------------------------------------------|
G |----------------------------------------------------------------------------------------------|
D#|----------------------------------------------------------------------------------------------|
A#|----------------------------------------------------------------------------------------------|
F |-2---------------------2---------------------2---------------------9-9-9--8-8-8--7-7-7--7-7-7-|
C |-0--0-0--0-0-0--0-0-0--0--0-0--0-0-0--0-0-0--0--0-0--0-0-0--0-0-0--7-7-7--6-6-6--5-5-5--5-5-5-|
       . .  . . .  . . .     . .  . . .  . . .     . .  . . .  . . .  . . .  . . .  . . .  . . . 

C |-------------------------------------------------------------------|
G |-------------------------------------------------------------------|
D#|-------------------------------------------------------------------|
A#|-------------------------------------------------10-10-10-10-10-10-|
F |-------------------------12-12-12-12-11-11-11-11-------------------|
C |-0-0-0-0-0-0-0-0-0-0-0-0-------------------------------------------|

C |-----------------------------------------------------|
G |-----------------------------------------------------|
D#|-----------------------------------------------------|
A#|-----------------------------------------------------|
F |-----------------------------------------1-1-1-1-1-1-|
C |-0-0-0-0-0-0-0-0-0-0-0-0-3-3-3-3-1-1-1-1-------------|

C |-------------------------------------------------------------------|
G |-------------------------------------------------------------------|
D#|-------------------------------------------------------------------|
A#|-------------------------------------------------10-10-10-10-10-10-|
F |-------------------------12-12-12-12-11-11-11-11-------------------|
C |-0-0-0-0-0-0-0-0-0-0-0-0-------------------------------------------|

C |-----------------------------------------------------|
G |-----------------------------------------------------|
D#|-----------------------------------------------------|
A#|-----------------------------------------------------|
F |-----------------------------------------1-1-1-1-1-1-|
C |-0-0-0-0-0-0-0-0-0-0-0-0-3-3-3-3-1-1-1-1-------------|

[Chorus]

C |----------------------------------------------------------------------------------------------|
G |----------------------------------------------------------------------------------------------|
D#|----------------------------------------------------------------------------------------------|
A#|----------------------------------------------------------------------------------------------|
F |-2---------------------2---------------------2---------------------9-9-9--8-8-8--7-7-7--7-7-7-|
C |-0--0-0--0-0-0--0-0-0--0--0-0--0-0-0--0-0-0--0--0-0--0-0-0--0-0-0--7-7-7--6-6-6--5-5-5--5-5-5-|
       . .  . . .  . . .     . .  . . .  . . .     . .  . . .  . . .  . . .  . . .  . . .  . . . 

C |----------------------------------------------------------------------------------------------|
G |----------------------------------------------------------------------------------------------|
D#|----------------------------------------------------------------------------------------------|
A#|----------------------------------------------------------------------------------------------|
F |-2---------------------2---------------------2---------------------9-9-9--8-8-8--7-7-7--7-7-7-|
C |-0--0-0--0-0-0--0-0-0--0--0-0--0-0-0--0-0-0--0--0-0--0-0-0--0-0-0--7-7-7--6-6-6--5-5-5--5-5-5-|
       . .  . . .  . . .     . .  . . .  . . .     . .  . . .  . . .  . . .  . . .  . . .  . . . 

[Outro]

C |--------------------------------------------------------------------------------|
G |--------------------------------------------------------------------------------|
D#|--------------------------------------------------------------------------------|
A#|-5\4---------5\4---------5\4--------------5\4---------5\4---------5\4-----------|
F |-3\2---------3\2---------3\2---------5-7--3\2---------3\2---------3\2---------5-|
C |------0-0-0-------0-0-0-------0-0-0--3-5-------0-0-0-------0-0-0-------0-0-0--3-|
         . . .       . . .       . . .            . . .       . . .       . . .

C |----------------------------------------------------------------------------------|
G |----------------------------------------------------------------------------------|
D#|----------------------------------------------------------------------------------|
A#|-5\4---------5\4---------5\4--------------5\4---------5\4---------5\4-------------|
F |-3\2---------3\2---------3\2---------5-7--3\2---------3\2---------3\2---------5-7-|
C |------0-0-0-------0-0-0-------0-0-0--3-5-------0-0-0-------0-0-0-------0-0-0--3-5-|
         . . .       . . .       . . .            . . .       . . .       . . .

C |---------------------------------------------------------------------------------------------------------|
G |---------------------------------------------------------------------------------------------------------|
D#|---------------------------------------------------------------------------------------------------------|
A#|-5\4---------5\4---------5\4--------------5\4---------5\4---------5\4------------------------------------|
F |-3\2---------3\2---------3\2---------5-7--3\2---------3\2---------3\2---------5-7--3-3-3-3-3-3-3-3-3-3-3-|
C |------0-0-0-------0-0-0-------0-0-0--3-5-------0-0-0-------0-0-0-------0-0-0--3-5--1-1-1-1-1-1-1-1-1-1-1-|
         . . .       . . .       . . .            . . .       . . .       . . .       . . . . . . . . . . .

C |--------------------------------------------------------------------------------|
G |--------------------------------------------------------------------------------|
D#|--------------------------------------------------------------------------------|
A#|-5\4---------5\4---------5\4--------------5\4---------5\4---------5\4-----------|
F |-3\2---------3\2---------3\2---------5-7--3\2---------3\2---------3\2---------5-|
C |------0-0-0-------0-0-0-------0-0-0--3-5-------0-0-0-------0-0-0-------0-0-0--3-|
         . . .       . . .       . . .            . . .       . . .       . . .

C |----------------------------------------------------------------------------------|
G |----------------------------------------------------------------------------------|
D#|----------------------------------------------------------------------------------|
A#|-5\4---------5\4---------5\4--------------5\4---------5\4---------5\4-------------|
F |-3\2---------3\2---------3\2---------5-7--3\2---------3\2---------3\2---------5-7-|
C |------0-0-0-------0-0-0-------0-0-0--3-5-------0-0-0-------0-0-0-------0-0-0--3-5-|
         . . .       . . .       . . .            . . .       . . .       . . .

C |-----------------------------------------|
G |-----------------------------------------|
D#|-----------------------------------------|
A#|-5\4---------5\4---------5\4-------------|
F |-3\2---------3\2---------3\2---------5-7-|
C |------0-0-0-------0-0-0-------0-0-0--3-5-|
         . . .       . . .       . . .     

C |-------------------------------------------------------------------------------|
G |-------------------------------------------------------------------------------|
D#|-------------------------------------------------------------------------------|
A#|-5\4---------5\4---------5\4---------------------------------------------------|
F |-3\2---------3\2---------3\2---------5-7--3-3-3-3-3-3-3-3-3-3-3-3--2--2-2-2--2-|
C |------0-0-0-------0-0-0-------0-0-0--3-5--1-1-1-1-1-1-1-1-1-1-1-1--0--0-0-0--0-|
         . . .       . . .       . . .       . . . . . . . . . . . .     . . . 

************************************

| x   Dead note
| g   Grace note
| (n) Ghost note
| h   Hammer-on
| p   Pull-off
| r   Release
| >   Accented note
| t   Tapping
| b   Bend
| br  Bend release
| pb  Pre-bend
| pbr Pre-bend release
| /   Slide up
| \   Slide down
| ~   Vibrato
| s   Slap
| P   Pop
| .  Palm mute
| TR  Trill
| N   Tremolo

************************************
Suggest correction
Creating personal tab
Creating personal tab
You can edit any tab online and save it as your Personal.

You can edit, replace or remove any tab part or add personal notes – all changes will be seen only by you.

Personal tabs can be accessed anytime from any device, even offline.
Learn more »
Give kudos to tab author, rate the tab!
1 2 3 4 5
comments
print report bad tab
guest
You may want to rate the tab now too:
select rating
Wanna post a correction for this tab? Suggest correction