Oops, an error
Loading. Please wait.

Envious tab

by Nervosa
130 views 1 this week
no commentswrite comment
1 2 3 4 5
2 more votes to show rating
add to favorites
×
Save as Personal and add changes to this tab that will be seen only by you. Learn more ›
×
You can save this tab as Personal to edit and correct it or add notes. All changes will be seen only by you. Learn more »
launch autoscroll
font size
0
reset
how to read this tab
guitar tuner
edit
Autoscroll
slow
fast
+/-
esc
set tempo
stop
Author
Artist: Nervosa
Song: Envious
Album: Victim Of Yourself
Year: 2014
Tabbed by: antichris666

Tuning: C G D# A# F C 

[Intro]

C |---------------------------------------------|
F |---------------------------------------------|
A#|---------------------------------------------|
D#|-------2--------5-----4--------2--------3----|
G |----2-----2-----------------2--------3-----3-|
C |-0-----------3-----2-----0--------1----------|

C |---------------------------------------------|
F |---------------------------------------------|
A#|---------------------------------------------|
D#|-------2--------5-----4--------2--------3----|
G |----2-----2-----------------2--------3-----3-|
C |-0-----------3-----2-----0--------1----------|

C |---------------------------------------------|
F |---------------------------------------------|
A#|---------------------------------------------|
D#|-------2--------5-----4--------2--------3----|
G |----2-----2-----------------2--------3-----3-|
C |-0-----------3-----2-----0--------1----------|

C |---------------------------------------------|
F |---------------------------------------------|
A#|---------------------------------------------|
D#|-2-----------5-----4-----2--------3----------|
G |-2-----------5-----4-----2--------3----------|
C |-0-----------3-----2-----0--------1----------|


C |------------------------------------------------------------------------------------------------|
F |------------------------------------------------------------------------------------------------|
A#|------------------------------------------------------------------------------------------------|
D#|------------------------------------------------------------------------------------------------|
G |-2-----------2-----------5-----------4-----------2-----------2-----------3----------------------|
C |-0--0-0-0-0--0--0-0-0-0--3--3-3-3-3--2--2-2-2-2--0--0-0-0-0--0--0-0-0-0--1--1-1-1-1-1-1-1-1-1-1-|
       . . . .     . . . .     . . . .     . . . .     . . . .     . . . .     . . . . . . . . . .  

C |------------------------------------------------------------------------------------------------|
F |------------------------------------------------------------------------------------------------|
A#|------------------------------------------------------------------------------------------------|
D#|------------------------------------------------------------------------------------------------|
G |-2-----------2-----------5-----------4-----------2-----------2-----------3----------------------|
C |-0--0-0-0-0--0--0-0-0-0--3--3-3-3-3--2--2-2-2-2--0--0-0-0-0--0--0-0-0-0--1--1-1-1-1-1-1-1-1-1-1-|
       . . . .     . . . .     . . . .     . . . .     . . . .     . . . .     . . . . . . . . . .  

[Verse]

C |----------------------------------------------------------------------------------------|
F |----------------------------------------------------------------------------------------|
A#|----------------------------------------------------------------------------------------|
D#|----------------------------------------------------------------------------------------|
G |-2-------2-------2-------2-------5\4--5\4--5\4--2-------2-------2-------2-------3--3--3-|
C |-0--0-0--0--0-0--0--0-0--0--0-0--3\2--3\2--3\2--0--0-0--0--0-0--0--0-0--0--0-0--1--1--1-|
       . .     . .     . .     . .                    . .     . .     . .     . .

C |----------------------------------------------------------------------------------------|
F |----------------------------------------------------------------------------------------|
A#|----------------------------------------------------------------------------------------|
D#|----------------------------------------------------------------------------------------|
G |-2-------2-------2-------2-------5\4--5\4--5\4--2-------2-------2-------2-------3--3--3-|
C |-0--0-0--0--0-0--0--0-0--0--0-0--3\2--3\2--3\2--0--0-0--0--0-0--0--0-0--0--0-0--1--1--1-|
       . .     . .     . .     . .                    . .     . .     . .     . .

C |--------------------------------------------------------------------------|
F |--------------------------------------------------------------------------|
A#|--------------------------------------------------------------------------|
D#|--------------------------3--3--3--3---------------------------5--5--5--5-|
G |-0-0-0-0-0-0-0-0-0-0-0-0--1--1--1--1--0-0-0-0-0-0-0-0-0-0-0-0--3--3--3--3-|
C |--------------------------------------------------------------------------|

C |--------------------------------------------------------------------------|
F |--------------------------------------------------------------------------|
A#|--------------------------------------------------------------------------|
D#|--------------------------3--3--3--3---------------------------5--5--5--5-|
G |-0-0-0-0-0-0-0-0-0-0-0-0--1--1--1--1--0-0-0-0-0-0-0-0-0-0-0-0--3--3--3--3-|
C |--------------------------------------------------------------------------|

C |--------------------------------------------------------------------------------------|
F |--------------------------------------------------------------------------------------|
A#|--------------------------------------------------------------------------------------|
D#|-----------------------------2--1---------------------------------------2--3--3--2--0-|
G |-0-0-0-0-0-0-0-0-0-0-0-0--3--------1--2--3--0-0-0-0-0-0-0-0-0-0-0-0--3----------------|
C |--------------------------------------------------------------------------------------|

C |--------------------------------------------------------------------------------------|
F |--------------------------------------------------------------------------------------|
A#|--------------------------------------------------------------------------------------|
D#|-----------------------------2--1---------------------------------------2--3--3--2--0-|
G |-0-0-0-0-0-0-0-0-0-0-0-0--3--------1--2--3--0-0-0-0-0-0-0-0-0-0-0-0--3----------------|
C |--------------------------------------------------------------------------------------|

C |---------------------------------------------------------------------------------------|
F |---------------------------------------------------------------------------------------|
A#|---------------------------------------------------------------------------------------|
D#|--------------------------5-------------------5---------------------------10--10--9--9-|
G |-0-0-0-0-0-0-0-0-0-0-0-0--3--0-0-0-0-0-0-0-0--3--0-0-0-0-0-0-0-0-0-0-0-0--8---8---7--7-|
C |---------------------------------------------------------------------------------------|

C |---------------------------------------------------------------------------------------|
F |---------------------------------------------------------------------------------------|
A#|---------------------------------------------------------------------------------------|
D#|--------------------------5-------------------5---------------------------10--10--9--9-|
G |-0-0-0-0-0-0-0-0-0-0-0-0--3--0-0-0-0-0-0-0-0--3--0-0-0-0-0-0-0-0-0-0-0-0--8---8---7--7-|
C |---------------------------------------------------------------------------------------|

C |--------------------------------------------------------------------------|
F |--------------------------------------------------------------------------|
A#|--------------------------------------------------------------------------|
D#|--------------------------3--3--3--3---------------------------5--5--5--5-|
G |-0-0-0-0-0-0-0-0-0-0-0-0--1--1--1--1--0-0-0-0-0-0-0-0-0-0-0-0--3--3--3--3-|
C |--------------------------------------------------------------------------|

C |--------------------------------------------------------------------------|
F |--------------------------------------------------------------------------|
A#|--------------------------------------------------------------------------|
D#|--------------------------3--3--3--3---------------------------5--5--5--5-|
G |-0-0-0-0-0-0-0-0-0-0-0-0--1--1--1--1--0-0-0-0-0-0-0-0-0-0-0-0--3--3--3--3-|
C |--------------------------------------------------------------------------|

C |--------------------------------------------------------------------------------------|
F |--------------------------------------------------------------------------------------|
A#|--------------------------------------------------------------------------------------|
D#|-----------------------------2--1---------------------------------------2--3--3--2--0-|
G |-0-0-0-0-0-0-0-0-0-0-0-0--3--------1--2--3--0-0-0-0-0-0-0-0-0-0-0-0--3----------------|
C |--------------------------------------------------------------------------------------|

C |--------------------------------------------------------------------------------------|
F |--------------------------------------------------------------------------------------|
A#|--------------------------------------------------------------------------------------|
D#|-----------------------------2--1---------------------------------------2--3--3--2--0-|
G |-0-0-0-0-0-0-0-0-0-0-0-0--3--------1--2--3--0-0-0-0-0-0-0-0-0-0-0-0--3----------------|
C |--------------------------------------------------------------------------------------|

C |---------------------------------------------------------------------------------------|
F |---------------------------------------------------------------------------------------|
A#|---------------------------------------------------------------------------------------|
D#|--------------------------5-------------------5---------------------------10--10--9--9-|
G |-0-0-0-0-0-0-0-0-0-0-0-0--3--0-0-0-0-0-0-0-0--3--0-0-0-0-0-0-0-0-0-0-0-0--8---8---7--7-|
C |---------------------------------------------------------------------------------------|

C |---------------------------------------------------------------------------------------|
F |---------------------------------------------------------------------------------------|
A#|---------------------------------------------------------------------------------------|
D#|--------------------------5-------------------5---------------------------10--10--9--9-|
G |-0-0-0-0-0-0-0-0-0-0-0-0--3--0-0-0-0-0-0-0-0--3--0-0-0-0-0-0-0-0-0-0-0-0--8---8---7--7-|
C |---------------------------------------------------------------------------------------|

C |------------------------------------------------------------------------------|
F |------------------------------------------------------------------------------|
A#|------------------------------------------------------------------------------|
D#|------------------------------------------------------------------------------|
G |-2---------------------2---------------------2---------------------3-3--3-3-3-|
C |-0--0-0-0--0-0-0--0-0--0--0-0-0--0-0-0--0-0--0--0-0-0--0-0-0--0-0--1-1--1-1-1-|
       . . .  . . .  . .     . . .  . . .  . .     . . .  . . .  . .  . .  . . . 

C |------------------------------------------------------------------------------|
F |------------------------------------------------------------------------------|
A#|------------------------------------------------------------------------------|
D#|------------------------------------------------------------------------------|
G |-2---------------------2---------------------2---------------------3-3--3-3-3-|
C |-0--0-0-0--0-0-0--0-0--0--0-0-0--0-0-0--0-0--0--0-0-0--0-0-0--0-0--1-1--1-1-1-|
       . . .  . . .  . .     . . .  . . .  . .     . . .  . . .  . .  . .  . . . 

C |------------------------------------------------------------------------------|
F |------------------------------------------------------------------------------|
A#|------------------------------------------------------------------------------|
D#|------------------------------------------------------------------------------|
G |-2---------------------2---------------------2---------------------3-3--3-3-3-|
C |-0--0-0-0--0-0-0--0-0--0--0-0-0--0-0-0--0-0--0--0-0-0--0-0-0--0-0--1-1--1-1-1-|
       . . .  . . .  . .     . . .  . . .  . .     . . .  . . .  . .  . .  . . . 

C |------------------------------------------------------------------------------|
F |------------------------------------------------------------------------------|
A#|------------------------------------------------------------------------------|
D#|------------------------------------------------------------------------------|
G |-2---------------------2---------------------2---------------------3-3--3-3-3-|
C |-0--0-0-0--0-0-0--0-0--0--0-0-0--0-0-0--0-0--0--0-0-0--0-0-0--0-0--1-1--1-1-1-|
       . . .  . . .  . .     . . .  . . .  . .     . . .  . . .  . .  . .  . . . 

C |---------------------------------------------|
F |---------------------------------------------|
A#|---------------------------------------------|
D#|-------2--------5-----4--------2--------3----|
G |----2-----2-----------------2--------3-----3-|
C |-0-----------3-----2-----0--------1----------|

[Solo Rhythm] 

C |----------------------------------------------|
F |----------------------------------------------|
A#|----------------------------------------------|
D#|-2--------5--------4--------2--------3--------|
G |-2--------5--------4--------2--------3--------|
C |-0--------3--------2--------0--------1--------|

C |----------------------------------------------|
F |----------------------------------------------|
A#|----------------------------------------------|
D#|-2--------5--------4--------2--------3--------|
G |-2--------5--------4--------2--------3--------|
C |-0--------3--------2--------0--------1--------|

C |--------------------------------------------------------|
F |--------------------------------------------------------|
A#|--------------------------------------------------------|
D#|-2-----------2---5--5---4--4-------------2---3--3--3--3-|
G |-2---2-2-2---2---5--5---4--4---2-2-2-2---2---3--3--3--3-|
C |-0---0-0-0---0---3--3---2--2---0-0-0-0---0---1--1--1--1-|
        . . .                     . . . .    

C |----------------------------------------------|
F |----------------------------------------------|
A#|----------------------------------------------|
D#|-2--------5--------4--------2--------3--------|
G |-2--------5--------4--------2--------3--------|
C |-0--------3--------2--------0--------1--------|

[Verse]

C |----------------------------------------------------------------------------------------|
F |----------------------------------------------------------------------------------------|
A#|----------------------------------------------------------------------------------------|
D#|----------------------------------------------------------------------------------------|
G |-2-------2-------2-------2-------5\4--5\4--5\4--2-------2-------2-------2-------3--3--3-|
C |-0--0-0--0--0-0--0--0-0--0--0-0--3\2--3\2--3\2--0--0-0--0--0-0--0--0-0--0--0-0--1--1--1-|
       . .     . .     . .     . .                    . .     . .     . .     . .

C |----------------------------------------------------------------------------------------|
F |----------------------------------------------------------------------------------------|
A#|----------------------------------------------------------------------------------------|
D#|----------------------------------------------------------------------------------------|
G |-2-------2-------2-------2-------5\4--5\4--5\4--2-------2-------2-------2-------3--3--3-|
C |-0--0-0--0--0-0--0--0-0--0--0-0--3\2--3\2--3\2--0--0-0--0--0-0--0--0-0--0--0-0--1--1--1-|
       . .     . .     . .     . .                    . .     . .     . .     . .

C |--------------------------------------------------------------------------|
F |--------------------------------------------------------------------------|
A#|--------------------------------------------------------------------------|
D#|--------------------------3--3--3--3---------------------------5--5--5--5-|
G |-0-0-0-0-0-0-0-0-0-0-0-0--1--1--1--1--0-0-0-0-0-0-0-0-0-0-0-0--3--3--3--3-|
C |--------------------------------------------------------------------------|

C |--------------------------------------------------------------------------|
F |--------------------------------------------------------------------------|
A#|--------------------------------------------------------------------------|
D#|--------------------------3--3--3--3---------------------------5--5--5--5-|
G |-0-0-0-0-0-0-0-0-0-0-0-0--1--1--1--1--0-0-0-0-0-0-0-0-0-0-0-0--3--3--3--3-|
C |--------------------------------------------------------------------------|

C |--------------------------------------------------------------------------------------|
F |--------------------------------------------------------------------------------------|
A#|--------------------------------------------------------------------------------------|
D#|-----------------------------2--1---------------------------------------2--3--3--2--0-|
G |-0-0-0-0-0-0-0-0-0-0-0-0--3--------1--2--3--0-0-0-0-0-0-0-0-0-0-0-0--3----------------|
C |--------------------------------------------------------------------------------------|

C |--------------------------------------------------------------------------------------|
F |--------------------------------------------------------------------------------------|
A#|--------------------------------------------------------------------------------------|
D#|-----------------------------2--1---------------------------------------2--3--3--2--0-|
G |-0-0-0-0-0-0-0-0-0-0-0-0--3--------1--2--3--0-0-0-0-0-0-0-0-0-0-0-0--3----------------|
C |--------------------------------------------------------------------------------------|

C |---------------------------------------------------------------------------------------|
F |---------------------------------------------------------------------------------------|
A#|---------------------------------------------------------------------------------------|
D#|--------------------------5-------------------5---------------------------10--10--9--9-|
G |-0-0-0-0-0-0-0-0-0-0-0-0--3--0-0-0-0-0-0-0-0--3--0-0-0-0-0-0-0-0-0-0-0-0--8---8---7--7-|
C |---------------------------------------------------------------------------------------|

C |---------------------------------------------------------------------------------------|
F |---------------------------------------------------------------------------------------|
A#|---------------------------------------------------------------------------------------|
D#|--------------------------5-------------------5---------------------------10--10--9--9-|
G |-0-0-0-0-0-0-0-0-0-0-0-0--3--0-0-0-0-0-0-0-0--3--0-0-0-0-0-0-0-0-0-0-0-0--8---8---7--7-|
C |---------------------------------------------------------------------------------------|

C |--------------------------------------------------------------------------|
F |--------------------------------------------------------------------------|
A#|--------------------------------------------------------------------------|
D#|--------------------------3--3--3--3---------------------------5--5--5--5-|
G |-0-0-0-0-0-0-0-0-0-0-0-0--1--1--1--1--0-0-0-0-0-0-0-0-0-0-0-0--3--3--3--3-|
C |--------------------------------------------------------------------------|

C |--------------------------------------------------------------------------|
F |--------------------------------------------------------------------------|
A#|--------------------------------------------------------------------------|
D#|--------------------------3--3--3--3---------------------------5--5--5--5-|
G |-0-0-0-0-0-0-0-0-0-0-0-0--1--1--1--1--0-0-0-0-0-0-0-0-0-0-0-0--3--3--3--3-|
C |--------------------------------------------------------------------------|

C |--------------------------------------------------------------------------------------|
F |--------------------------------------------------------------------------------------|
A#|--------------------------------------------------------------------------------------|
D#|-----------------------------2--1---------------------------------------2--3--3--2--0-|
G |-0-0-0-0-0-0-0-0-0-0-0-0--3--------1--2--3--0-0-0-0-0-0-0-0-0-0-0-0--3----------------|
C |--------------------------------------------------------------------------------------|

C |--------------------------------------------------------------------------------------|
F |--------------------------------------------------------------------------------------|
A#|--------------------------------------------------------------------------------------|
D#|-----------------------------2--1---------------------------------------2--3--3--2--0-|
G |-0-0-0-0-0-0-0-0-0-0-0-0--3--------1--2--3--0-0-0-0-0-0-0-0-0-0-0-0--3----------------|
C |--------------------------------------------------------------------------------------|

C |---------------------------------------------------------------------------------------|
F |---------------------------------------------------------------------------------------|
A#|---------------------------------------------------------------------------------------|
D#|--------------------------5-------------------5---------------------------10--10--9--9-|
G |-0-0-0-0-0-0-0-0-0-0-0-0--3--0-0-0-0-0-0-0-0--3--0-0-0-0-0-0-0-0-0-0-0-0--8---8---7--7-|
C |---------------------------------------------------------------------------------------|

C |---------------------------------------------------------------------------------------|
F |---------------------------------------------------------------------------------------|
A#|---------------------------------------------------------------------------------------|
D#|--------------------------5-------------------5---------------------------10--10--9--9-|
G |-0-0-0-0-0-0-0-0-0-0-0-0--3--0-0-0-0-0-0-0-0--3--0-0-0-0-0-0-0-0-0-0-0-0--8---8---7--7-|
C |---------------------------------------------------------------------------------------|

C |------------------------------------------------------------------------------|
F |------------------------------------------------------------------------------|
A#|------------------------------------------------------------------------------|
D#|------------------------------------------------------------------------------|
G |-2---------------------2---------------------2---------------------3-3--3-3-3-|
C |-0--0-0-0--0-0-0--0-0--0--0-0-0--0-0-0--0-0--0--0-0-0--0-0-0--0-0--1-1--1-1-1-|
       . . .  . . .  . .     . . .  . . .  . .     . . .  . . .  . .  . .  . . . 

C |------------------------------------------------------------------------------|
F |------------------------------------------------------------------------------|
A#|------------------------------------------------------------------------------|
D#|------------------------------------------------------------------------------|
G |-2---------------------2---------------------2---------------------3-3--3-3-3-|
C |-0--0-0-0--0-0-0--0-0--0--0-0-0--0-0-0--0-0--0--0-0-0--0-0-0--0-0--1-1--1-1-1-|
       . . .  . . .  . .     . . .  . . .  . .     . . .  . . .  . .  . .  . . . 

C |------------------------------------------------------------------------------|
F |------------------------------------------------------------------------------|
A#|------------------------------------------------------------------------------|
D#|------------------------------------------------------------------------------|
G |-2---------------------2---------------------2---------------------3-3--3-3-3-|
C |-0--0-0-0--0-0-0--0-0--0--0-0-0--0-0-0--0-0--0--0-0-0--0-0-0--0-0--1-1--1-1-1-|
       . . .  . . .  . .     . . .  . . .  . .     . . .  . . .  . .  . .  . . . 

C |------------------------------------------------------------------------------|
F |------------------------------------------------------------------------------|
A#|------------------------------------------------------------------------------|
D#|------------------------------------------------------------------------------|
G |-2---------------------2---------------------2---------------------3-3--3-3-3-|
C |-0--0-0-0--0-0-0--0-0--0--0-0-0--0-0-0--0-0--0--0-0-0--0-0-0--0-0--1-1--1-1-1-|
       . . .  . . .  . .     . . .  . . .  . .     . . .  . . .  . .  . .  . . . 

[Outro]

C |---------------------------------------------|
F |---------------------------------------------|
A#|---------------------------------------------|
D#|-------2--------5-----4--------2--------3----|
G |----2-----2-----------------2--------3-----3-|
C |-0-----------3-----2-----0--------1----------|

C |------------------------------------------------|
F |------------------------------------------------|
A#|------------------------------------------------|
D#|-------2--------5-----4--------2--------3-----2-|
G |----2-----2-----------------2--------3-----3--2-|
C |-0-----------3-----2-----0--------1-----------0-|


************************************

| x   Dead note
| g   Grace note
| (n) Ghost note
| h   Hammer-on
| p   Pull-off
| r   Release
| >   Accented note
| t   Tapping
| b   Bend
| br  Bend release
| pb  Pre-bend
| pbr Pre-bend release
| /   Slide up
| \   Slide down
| ~   Vibrato
| s   Slap
| P   Pop
| .  Palm mute
| TR  Trill
| N   Tremolo

************************************

            
            
Suggest correction
Creating personal tab
Creating personal tab
You can edit any tab online and save it as your Personal.

You can edit, replace or remove any tab part or add personal notes – all changes will be seen only by you.

Personal tabs can be accessed anytime from any device, even offline.
Learn more »
Give kudos to tab author, rate the tab!
1 2 3 4 5
comments
print report bad tab
guest
You may want to rate the tab now too:
select rating
Wanna post a correction for this tab? Suggest correction