Oops, an error
Loading. Please wait.

Guerra Santa tab

by Nervosa
106 views 1 this week
no commentswrite comment
1 2 3 4 5
2 more votes to show rating
add to favorites
×
Save as Personal and add changes to this tab that will be seen only by you. Learn more ›
×
You can save this tab as Personal to edit and correct it or add notes. All changes will be seen only by you. Learn more »
launch autoscroll
font size
0
reset
how to read this tab
guitar tuner
edit
Autoscroll
slow
fast
+/-
esc
set tempo
stop
Author
Artist: Nervosa
Song: Guerra Santa
Album: Agony
Year: 2016
Tabbed By: antichris666

Tuning: C F A# D# G C

[Intro]

C |-------------------------------------|
G |-------------------------------------|
D#|-------------------------------------|
A#|-------------------------------------|
F |-4--3--7--6---4--4--3--3--7--7--6--6-|
C |-2--1--5--4---2--2--1--1--5--5--4--4-|

C |--------------------------------------------------------------------------------------------------------|
G |--------------------------------------------------------------------------------------------------------|
D#|--------------------------------------------------------------------------------------------------------|
A#|--------------------------------------------------------------------------------------------------------|
F |-4-4-4-4-4-4--3-3-3-3-3-3--7-7-7-7-7-7--6-6-6-6-6-6--4-4-4-4-4-4--3-3-3-3-3-3--7-7-7-7-7-7--6-6-6-6-6-6-|
C |-2-2-2-2-2-2--1-1-1-1-1-1--5-5-5-5-5-5--4-4-4-4-4-4--2-2-2-2-2-2--1-1-1-1-1-1--5-5-5-5-5-5--4-4-4-4-4-4-|
    . . . . . .  . . . . . .  . . . . . .  . . . . . .  . . . . . .  . . . . . .  . . . . . .  . . . . . . 

C |-------------------------------------------------------------------------------------------------|
G |-------------------------------------------------------------------------------------------------|
D#|-------------------------------------------------------------------------------------------------|
A#|-------------------------------------------------------------------------------------------------|
F |-------------------------------------------------------------------------------------------------|
C |-2-2-2-2-2-2-1-1-1-1-1-1-5-5-5-5-5-5-4-4-4-4-4-4-2-2-2-2-2-2-1-1-1-1-1-1-5-5-5-5-5-5-4-4-4-4-4-4-|

C |-------------------------------------------------------------------------------------------------|
G |-------------------------------------------------------------------------------------------------|
D#|-------------------------------------------------------------------------------------------------|
A#|-------------------------------------------------------------------------------------------------|
F |-------------------------------------------------------------------------------------------------|
C |-2-2-2-2-2-2-1-1-1-1-1-1-5-5-5-5-5-5-4-4-4-4-4-4-2-2-2-2-2-2-1-1-1-1-1-1-5-5-5-5-5-5-4-4-4-4-4-4-|

C |-------------------------------------------------------------------------------------------------|
G |-------------------------------------------------------------------------------------------------|
D#|-------------------------------------------------------------------------------------------------|
A#|-------------------------------------------------------------------------------------------------|
F |-------------------------------------------------------------------------------------------------|
C |-2-2-2-2-2-2-1-1-1-1-1-1-5-5-5-5-5-5-4-4-4-4-4-4-2-2-2-2-2-2-1-1-1-1-1-1-5-5-5-5-5-5-4-4-4-4-4-4-|

C |-------------------------------------------------------------------------------------------------|
G |-------------------------------------------------------------------------------------------------|
D#|-------------------------------------------------------------------------------------------------|
A#|-------------------------------------------------------------------------------------------------|
F |-------------------------------------------------------------------------------------------------|
C |-2-2-2-2-2-2-1-1-1-1-1-1-5-5-5-5-5-5-4-4-4-4-4-4-2-2-2-2-2-2-1-1-1-1-1-1-5-5-5-5-5-5-4-4-4-4-4-4-|

[Verse]

C |-------------------------------------------------------------|
G |-------------------------------------------------------------|
D#|-------------------------------------------------------------|
A#|-------------------------------------------------------------|
F |-3-3-3-3-3-3-3-3-5-5-5-5-0-0---------------------------------|
C |-----------------------------2-2-2-2-2-2-2-2-2-2-2-2-2-2-2-2-|

C |-------------------------------------------------------------|
G |-------------------------------------------------------------|
D#|-------------------------------------------------------------|
A#|-------------------------------------------------------------|
F |-3-3-3-3-3-3-3-3-5-5-5-5-0-0---------------------------------|
C |-----------------------------2-2-2-2-2-2-2-2-2-2-2-2-2-2-2-2-|

C |-------------------------------------------------------------|
G |-------------------------------------------------------------|
D#|-------------------------------------------------------------|
A#|-------------------------------------------------------------|
F |-3-3-3-3-3-3-3-3-5-5-5-5-0-0---------------------------------|
C |-----------------------------2-2-2-2-2-2-2-2-2-2-2-2-2-2-2-2-|

C |-------------------------------------------------------------|
G |-------------------------------------------------------------|
D#|-------------------------------------------------------------|
A#|-------------------------------------------------------------|
F |-3-3-3-3-3-3-3-3-5-5-5-5-0-0---------------------------------|
C |-----------------------------2-2-2-2-2-2-2-2-2-2-2-2-2-2-2-2-|

C |-----------------------------------------------------------------|
G |-----------------------------------------------------------------|
D#|-----------------------------------------------------------------|
A#|-----------------------------------------------------------------|
F |-----------------8-8-8-8-7-7-7-7-----------------6-6-6-6-5-5-5-5-|
C |-5-5-5-5-5-5-5-5-----------------3-3-3-3-3-3-3-3-----------------|

C |-----------------------------------------------------------------|
G |-----------------------------------------------------------------|
D#|-----------------------------------------------------------------|
A#|-----------------------------------------------------------------|
F |-----------------8-8-8-8-7-7-7-7-----------------6-6-6-6-5-5-5-5-|
C |-5-5-5-5-5-5-5-5-----------------3-3-3-3-3-3-3-3-----------------|

C |-----------------------------------------------------------------|
G |-----------------------------------------------------------------|
D#|-----------------------------------------------------------------|
A#|-----------------------------------------------------------------|
F |-----------------8-8-8-8-7-7-7-7-----------------6-6-6-6-5-5-5-5-|
C |-5-5-5-5-5-5-5-5-----------------3-3-3-3-3-3-3-3-----------------|

C |-----------------------------------------------------------------|
G |-----------------------------------------------------------------|
D#|-----------------------------------------------------------------|
A#|-----------------------------------------------------------------|
F |-----------------8-8-8-8-7-7-7-7-----------------6-6-6-6-5-5-5-5-|
C |-5-5-5-5-5-5-5-5-----------------3-3-3-3-3-3-3-3-----------------|

C |-----------------------------------------------------------------|
G |-----------------------------------------------------------------|
D#|-----------------------------------------------------------------|
A#|--------------------------3-------------------------------3------|
F |------------------3-------1-----------------------3-------1------|
C |-0-0-0-0-0-0-0-0--1--0-0-----0-0-0-0-0-0-0-0-0-0--1--0-0-----0-0-|
    . . . . . . . .     . .     . . . . . . . . . .     . .     . . 

C |-----------------------------------------------------------------|
G |-----------------------------------------------------------------|
D#|-----------------------------------------------------------------|
A#|--------------------------3-------------------------------3------|
F |------------------3-------1-----------------------3-------1------|
C |-0-0-0-0-0-0-0-0--1--0-0-----0-0-0-0-0-0-0-0-0-0--1--0-0-----0-0-|
    . . . . . . . .     . .     . . . . . . . . . .     . .     . . 

C |-----------------------------------------------------------------|
G |-----------------------------------------------------------------|
D#|-----------------------------------------------------------------|
A#|-----------------------------------------------------------------|
F |-5-5-5-5-5-5-7-7-8-8-8-8-8-8-8-8-5-5-5-5-5-5-3-3-2-2-2-2-2-2-2-2-|
C |-----------------------------------------------------------------|

C |-----------------------------------------------------------------|
G |-----------------------------------------------------------------|
D#|-----------------------------------------------------------------|
A#|-----------------------------------------------------------------|
F |-5-5-5-5-5-5-7-7-8-8-8-8-8-8-8-8-5-5-5-5-5-5-3-3-2-2-2-2-2-2-2-2-|
C |-----------------------------------------------------------------|

[Chorus]

C |----------------------------------------------------------------|
G |----------------------------------------------------------------|
D#|----------------------------------------------------------------|
A#|-7--7--7---9---10--10--10--10--10---7--7--7---5---4--4--4--4--4-|
F |-5--5--5---7---8---8---8---8---8----5--5--5---3---2--2--2--2--2-|
C |----------------------------------------------------------------|

C |----------------------------------------------------------------|
G |----------------------------------------------------------------|
D#|----------------------------------------------------------------|
A#|-7--7--7---9---10--10--10--10--10---7--7--7---5---4--4--4--4--4-|
F |-5--5--5---7---8---8---8---8---8----5--5--5---3---2--2--2--2--2-|
C |----------------------------------------------------------------|

C |-----------------------------------------------------------------|
G |-----------------------------------------------------------------|
D#|-----------------------------------------------------------------|
A#|-----------------------------------------------------------------|
F |-5-5-5-5-5-5-7-7-8-8-8-8-8-8-8-8-5-5-5-5-5-5-3-3-2-2-2-2-2-2-2-2-|
C |-----------------------------------------------------------------|

C |-----------------------------------------------------------------|
G |-----------------------------------------------------------------|
D#|-----------------------------------------------------------------|
A#|-----------------------------------------------------------------|
F |-5-5-5-5-5-5-7-7-8-8-8-8-8-8-8-8-5-5-5-5-5-5-3-3-2-2-2-2-2-2-2-2-|
C |-----------------------------------------------------------------|

C |---------------------------------|
G |---------------------------------|
D#|---------------------------------|
A#|----------------x-\\\-pick slide-|
F |-4----4----4----x-\\\------------|
C |-2----2----2----x-\\\------------|

C |-------------------------------------------------------------------------------------------------|
G |-------------------------------------------------------------------------------------------------|
D#|-------------------------------------------------------------------------------------------------|
A#|-------------------------------------------------------------------------------------------------|
F |-------------------------------------------------------------------------------------------------|
C |-2-2-2-2-2-2-1-1-1-1-1-1-5-5-5-5-5-5-4-4-4-4-4-4-2-2-2-2-2-2-1-1-1-1-1-1-5-5-5-5-5-5-4-4-4-4-4-4-|

C |-------------------------------------------------------------------------------------------------|
G |-------------------------------------------------------------------------------------------------|
D#|-------------------------------------------------------------------------------------------------|
A#|-------------------------------------------------------------------------------------------------|
F |-------------------------------------------------------------------------------------------------|
C |-2-2-2-2-2-2-1-1-1-1-1-1-5-5-5-5-5-5-4-4-4-4-4-4-2-2-2-2-2-2-1-1-1-1-1-1-5-5-5-5-5-5-4-4-4-4-4-4-|

C |-------------------------------------------------------------------------------------------------|
G |-------------------------------------------------------------------------------------------------|
D#|-------------------------------------------------------------------------------------------------|
A#|-------------------------------------------------------------------------------------------------|
F |-------------------------------------------------------------------------------------------------|
C |-2-2-2-2-2-2-1-1-1-1-1-1-5-5-5-5-5-5-4-4-4-4-4-4-2-2-2-2-2-2-1-1-1-1-1-1-5-5-5-5-5-5-4-4-4-4-4-4-|

C |-------------------------------------------------------------------------------------------------|
G |-------------------------------------------------------------------------------------------------|
D#|-------------------------------------------------------------------------------------------------|
A#|-------------------------------------------------------------------------------------------------|
F |-------------------------------------------------------------------------------------------------|
C |-2-2-2-2-2-2-1-1-1-1-1-1-5-5-5-5-5-5-4-4-4-4-4-4-2-2-2-2-2-2-1-1-1-1-1-1-5-5-5-5-5-5-4-4-4-4-4-4-|

[Verse]

C |-------------------------------------------------------------|
G |-------------------------------------------------------------|
D#|-------------------------------------------------------------|
A#|-------------------------------------------------------------|
F |-3-3-3-3-3-3-3-3-5-5-5-5-0-0---------------------------------|
C |-----------------------------2-2-2-2-2-2-2-2-2-2-2-2-2-2-2-2-|

C |-------------------------------------------------------------|
G |-------------------------------------------------------------|
D#|-------------------------------------------------------------|
A#|-------------------------------------------------------------|
F |-3-3-3-3-3-3-3-3-5-5-5-5-0-0---------------------------------|
C |-----------------------------2-2-2-2-2-2-2-2-2-2-2-2-2-2-2-2-|

C |-------------------------------------------------------------|
G |-------------------------------------------------------------|
D#|-------------------------------------------------------------|
A#|-------------------------------------------------------------|
F |-3-3-3-3-3-3-3-3-5-5-5-5-0-0---------------------------------|
C |-----------------------------2-2-2-2-2-2-2-2-2-2-2-2-2-2-2-2-|

C |-------------------------------------------------------------|
G |-------------------------------------------------------------|
D#|-------------------------------------------------------------|
A#|-------------------------------------------------------------|
F |-3-3-3-3-3-3-3-3-5-5-5-5-0-0---------------------------------|
C |-----------------------------2-2-2-2-2-2-2-2-2-2-2-2-2-2-2-2-|

C |-----------------------------------------------------------------|
G |-----------------------------------------------------------------|
D#|-----------------------------------------------------------------|
A#|-----------------------------------------------------------------|
F |-----------------8-8-8-8-7-7-7-7-----------------6-6-6-6-5-5-5-5-|
C |-5-5-5-5-5-5-5-5-----------------3-3-3-3-3-3-3-3-----------------|

C |-----------------------------------------------------------------|
G |-----------------------------------------------------------------|
D#|-----------------------------------------------------------------|
A#|-----------------------------------------------------------------|
F |-----------------8-8-8-8-7-7-7-7-----------------6-6-6-6-5-5-5-5-|
C |-5-5-5-5-5-5-5-5-----------------3-3-3-3-3-3-3-3-----------------|

C |-----------------------------------------------------------------|
G |-----------------------------------------------------------------|
D#|-----------------------------------------------------------------|
A#|-----------------------------------------------------------------|
F |-----------------8-8-8-8-7-7-7-7-----------------6-6-6-6-5-5-5-5-|
C |-5-5-5-5-5-5-5-5-----------------3-3-3-3-3-3-3-3-----------------|

C |-----------------------------------------------------------------|
G |-----------------------------------------------------------------|
D#|-----------------------------------------------------------------|
A#|-----------------------------------------------------------------|
F |-----------------8-8-8-8-7-7-7-7-----------------6-6-6-6-5-5-5-5-|
C |-5-5-5-5-5-5-5-5-----------------3-3-3-3-3-3-3-3-----------------|

C |-----------------------------------------------------------------|
G |-----------------------------------------------------------------|
D#|-----------------------------------------------------------------|
A#|--------------------------3-------------------------------3------|
F |------------------3-------1-----------------------3-------1------|
C |-0-0-0-0-0-0-0-0--1--0-0-----0-0-0-0-0-0-0-0-0-0--1--0-0-----0-0-|
    . . . . . . . .     . .     . . . . . . . . . .     . .     . . 

C |-----------------------------------------------------------------|
G |-----------------------------------------------------------------|
D#|-----------------------------------------------------------------|
A#|--------------------------3-------------------------------3------|
F |------------------3-------1-----------------------3-------1------|
C |-0-0-0-0-0-0-0-0--1--0-0-----0-0-0-0-0-0-0-0-0-0--1--0-0-----0-0-|
    . . . . . . . .     . .     . . . . . . . . . .     . .     . . 

C |-----------------------------------------------------------------|
G |-----------------------------------------------------------------|
D#|-----------------------------------------------------------------|
A#|-----------------------------------------------------------------|
F |-5-5-5-5-5-5-7-7-8-8-8-8-8-8-8-8-5-5-5-5-5-5-3-3-2-2-2-2-2-2-2-2-|
C |-----------------------------------------------------------------|

C |-----------------------------------------------------------------|
G |-----------------------------------------------------------------|
D#|-----------------------------------------------------------------|
A#|-----------------------------------------------------------------|
F |-5-5-5-5-5-5-7-7-8-8-8-8-8-8-8-8-5-5-5-5-5-5-3-3-2-2-2-2-2-2-2-2-|
C |-----------------------------------------------------------------|

[Chorus]

C |----------------------------------------------------------------|
G |----------------------------------------------------------------|
D#|----------------------------------------------------------------|
A#|-7--7--7---9---10--10--10--10--10---7--7--7---5---4--4--4--4--4-|
F |-5--5--5---7---8---8---8---8---8----5--5--5---3---2--2--2--2--2-|
C |----------------------------------------------------------------|

C |----------------------------------------------------------------|
G |----------------------------------------------------------------|
D#|----------------------------------------------------------------|
A#|-7--7--7---9---10--10--10--10--10---7--7--7---5---4--4--4--4--4-|
F |-5--5--5---7---8---8---8---8---8----5--5--5---3---2--2--2--2--2-|
C |----------------------------------------------------------------|

C |-----------------------------------------------------------------|
G |-----------------------------------------------------------------|
D#|-----------------------------------------------------------------|
A#|-----------------------------------------------------------------|
F |-5-5-5-5-5-5-7-7-8-8-8-8-8-8-8-8-5-5-5-5-5-5-3-3-2-2-2-2-2-2-2-2-|
C |-----------------------------------------------------------------|

C |-----------------------------------------------------------------|
G |-----------------------------------------------------------------|
D#|-----------------------------------------------------------------|
A#|-----------------------------------------------------------------|
F |-5-5-5-5-5-5-7-7-8-8-8-8-8-8-8-8-5-5-5-5-5-5-3-3-2-2-2-2-2-2-2-2-|
C |-----------------------------------------------------------------|

[Outro]

C |---------------------|
G |---------------------|
D#|---------------------|
A#|---------------------|
F |-4----4----4----4----|
C |-2----2----2----2----|


************************************

| x   Dead note
| g   Grace note
| (n) Ghost note
| h   Hammer-on
| p   Pull-off
| r   Release
| >   Accented note
| t   Tapping
| b   Bend
| br  Bend release
| pb  Pre-bend
| pbr Pre-bend release
| /   Slide up
| \   Slide down
| ~   Vibrato
| s   Slap
| P   Pop
| .  Palm mute
| TR  Trill
| N   Tremolo

************************************
Suggest correction
Creating personal tab
Creating personal tab
You can edit any tab online and save it as your Personal.

You can edit, replace or remove any tab part or add personal notes – all changes will be seen only by you.

Personal tabs can be accessed anytime from any device, even offline.
Learn more »
Give kudos to tab author, rate the tab!
1 2 3 4 5
comments
print report bad tab
guest
You may want to rate the tab now too:
select rating
Wanna post a correction for this tab? Suggest correction