Oops, an error
Loading. Please wait.

Into Moshpit tab

by Nervosa
52 views 3 this week
no commentswrite comment
1 2 3 4 5
2 more votes to show rating
add to favorites
×
Save as Personal and add changes to this tab that will be seen only by you. Learn more ›
×
You can save this tab as Personal to edit and correct it or add notes. All changes will be seen only by you. Learn more »
launch autoscroll
font size
0
reset
how to read this tab
guitar tuner
edit
Autoscroll
slow
fast
+/-
esc
set tempo
stop
Artist: Nervosa
Song: Into Moshpit
Album: Victim Of Yourself
Year: 2014
Tuning: C F A# D# G C

[Intro]
C |---------------------------------------------------------------------------------------------------|
G |---------------------------------------------------------------------------------------------------|
D#|---------------------------------------------------------------------------------------------------|
A#|---------------------------------------------------------------------------------------------------|
F |-------------------------------------------------7-6-5-6----------------------------------2--------|
C |-0-0-0-0-0-0-0-0-0-0-0-0-0-0-0-0-0-0-0-0-0-0-0-0---------0-0-0-0-0-0-0-0-0-0-0-0-0-0--4-3----4-3-1-|

C |---------------------------------------------------------------------------------------------------|
G |---------------------------------------------------------------------------------------------------|
D#|---------------------------------------------------------------------------------------------------|
A#|---------------------------------------------------------------------------------------------------|
F |-------------------------------------------------7-6-5-6----------------------------------2--------|
C |-0-0-0-0-0-0-0-0-0-0-0-0-0-0-0-0-0-0-0-0-0-0-0-0---------0-0-0-0-0-0-0-0-0-0-0-0-0-0--4-3----4-3-1-|

[Verse]
C |---------------------------------------------------------------------------------------------------|
G |---------------------------------------------------------------------------------------------------|
D#|---------------------------------------------------------------------------------------------------|
A#|---------------------------------------------------------------------------------------------------|
F |-------------------------------------------------7-6-5-6----------------------------------2--------|
C |-0-0-0-0-0-0-0-0-0-0-0-0-0-0-0-0-0-0-0-0-0-0-0-0---------0-0-0-0-0-0-0-0-0-0-0-0-0-0--4-3----4-3-1-|

C |---------------------------------------------------------------------------------------------------|
G |---------------------------------------------------------------------------------------------------|
D#|---------------------------------------------------------------------------------------------------|
A#|---------------------------------------------------------------------------------------------------|
F |-------------------------------------------------7-6-5-6----------------------------------2--------|
C |-0-0-0-0-0-0-0-0-0-0-0-0-0-0-0-0-0-0-0-0-0-0-0-0---------0-0-0-0-0-0-0-0-0-0-0-0-0-0--4-3----4-3-1-|

C |-----------------------------------------------------------------------------------------------------|
G |-----------------------------------------------------------------------------------------------------|
D#|-----------------------------------------------------------------------------------------------------|
A |-----------------------------------------------------------------------------------------------------|
F |-----------------------------------------------------------------------------------------------------|
C |-0-0-0--0-0-0--0-0-0--0-0-0--0-0-0--0-0-0--0-0-0--0-0-0--0-0-0--0-0-0--0-0-0--0-0-0--6-6-6-6-6-6-6-6-|
    . . .  . . .  . . .  . . .  . . .  . . .  . . .  . . .  . . .  . . .  . . .  . . .  . . . . . . . .

C |-----------------------------------------------------------------------------------------------------|
G |-----------------------------------------------------------------------------------------------------|
D#|-----------------------------------------------------------------------------------------------------|
A |-----------------------------------------------------------------------------------------------------|
F |-----------------------------------------------------------------------------------------------------|
C |-0-0-0--0-0-0--0-0-0--0-0-0--0-0-0--0-0-0--0-0-0--0-0-0--0-0-0--0-0-0--0-0-0--0-0-0--6-6-6-6-6-6-6-6-|
    . . .  . . .  . . .  . . .  . . .  . . .  . . .  . . .  . . .  . . .  . . .  . . .  . . . . . . . .

C |-------------------------------------------------------------|
G |-------------------------------------------------------------|
D#|-------------------------------------------------------------|
A#|-------------------------------------------------------------|
F |---------4p3-----3p2-----8p7h8---------4p3-----3p2-----8p7h8-|
C |-0-0-0-0-----0-0-----0-0-------0-0-0-0-----0-0-----0-0-------|
    . . . .     . .     . .       . . . .     . .     . .

C |-------------------------------------------------------------|
G |-------------------------------------------------------------|
D#|-------------------------------------------------------------|
A#|-------------------------------------------------------------|
F |---------4p3-----3p2-----8p7h8---------4p3-----3p2-----8p7h8-|
C |-0-0-0-0-----0-0-----0-0-------0-0-0-0-----0-0-----0-0-------|
    . . . .     . .     . .       . . . .     . .     . . 

C |----------------------------------------------------------------------------------|
G |----------------------------------------------------------------------------------|
D#|----------------------------------------------------------------------------------|
A#|---------------1-1-1-1-1-1-1-1-1-1-1-1-1-1-1-1-1-1-1-1-1-1-1-1-1-1-1-1-1-1-1-1----|
F |-2----2b----0-------------------------------------------------------------------0-|
C |----------------------------------------------------------------------------------|

C |-----------------------------------------------------------------------------------|
G |-----------------------------------------------------------------------------------|
D#|-----------------------------------------------------------------------------------|
A#|------/9b-------3-3-3-3-3-3-3-3-3-3-3-3-3-3-3-3-3-3-3-3-3-3-3-3-3-3-3-3-3-3-3-3----|
F |-2-----------0-------------------------------------------------------------------0-|
C |-----------------------------------------------------------------------------------|

C |----------------------------------------------------------------------------------|
G |----------------------------------------------------------------------------------|
D#|----------------------------------------------------------------------------------|
A#|---------------1-1-1-1-1-1-1-1-1-1-1-1-1-1-1-1-1-1-1-1-1-1-1-1-1-1-1-1-1-1-1-1----|
F |-2----2b----0-------------------------------------------------------------------0-|
C |----------------------------------------------------------------------------------|

C |--------------------------------------------------------------------------------|
G |--------------------------------------------------------------------------------|
D#|--------------------------------------------------------------------------------|
A#|------/9b-------3-3-3-3-3-3-3-3-3-3-3-3-3-3-3-3-3-3-3-3-3-3-3-3-3-3-3-3-3-3-3-3-|
F |-2-----------0------------------------------------------------------------------|
C |--------------------------------------------------------------------------------|

[Chorus]
C |-----------------------------------------|
G |-----------------------------------------|
D#|-----------------------------------------|
A#|-----------------------------------------|
F |-------------------------------------6p5-|
C |-0-0-0--0-0-0--0-0-0--0-0-0--4p3p0-0-----|
    . . .  . . .  . . .  . . .        .

C |-----------------------------------------|
G |-----------------------------------------|
D#|-----------------------------------------|
A#|-----------------------------------------|
F |-------------------------------------6p5-|
C |-0-0-0--0-0-0--0-0-0--0-0-0--4p3p0-0-----|
    . . .  . . .  . . .  . . .        .

C |-----------------------------------------|
G |-----------------------------------------|
D#|-----------------------------------------|
A#|-----------------------------------------|
F |-------------------------------------6p5-|
C |-0-0-0--0-0-0--0-0-0--0-0-0--4p3p0-0-----|
    . . .  . . .  . . .  . . .        .

C |-----------------------------------------|
G |-----------------------------------------|
D#|-----------------------------------------|
A#|-----------------------------------------|
F |-------------------------------------6p5-|
C |-0-0-0--0-0-0--0-0-0--0-0-0--4p3p0-0-----|
    . . .  . . .  . . .  . . .        .

C |--------------------------------------------------------------|
G |--------------------------------------------------------------|
D#|--------------------------------------------------------------|
A#|--------------------------------------------------------------|
F |--------------------------------------------------------------|
C |-6p5p0-5p4p0-4p3p0-3p2p0-1h2h3--6p5p0-5p4p0-4p3p0-3p2p0--1--1-|

C |--------------------------------------------------------------|
G |--------------------------------------------------------------|
D#|--------------------------------------------------------------|
A#|--------------------------------------------------------------|
F |--------------------------------------------------------------|
C |-6p5p0-5p4p0-4p3p0-3p2p0-1h2h3--6p5p0-5p4p0-4p3p0-3p2p0--1--1-|

C |-----------------------------------------------------------------|
G |-----------------------------------------------------------------|
D#|-----------------------------------------------------------------|
A#|-------------------------2-2-2-2-1-1-1-1-1-1-1-1-1-1-1-1-1-1-1-1-|
F |-0-0-0-0-0-0-0-0-3-3-3-3-----------------------------------------|
C |-----------------------------------------------------------------|
    . . . . . . . . . . . . . . . .

C |-----------------------------------------------------------------|
G |-----------------------------------------------------------------|
D#|-----------------------------------------------------------------|
A#|-------------------------2-2-2-2-1-1-1-1-1-1-1-1-1-1-1-1-1-1-1-1-|
F |-0-0-0-0-0-0-0-0-3-3-3-3-----------------------------------------|
C |-----------------------------------------------------------------|
    . . . . . . . . . . . . . . . .

C |-----------------------------------------------------------------|
G |-----------------------------------------------------------------|
D#|-----------------------------------------------------------------|
A#|-------------------------2-2-2-2-1-1-1-1-1-1-1-1-1-1-1-1-1-1-1-1-|
F |-0-0-0-0-0-0-0-0-3-3-3-3-----------------------------------------|
C |-----------------------------------------------------------------|
    . . . . . . . . . . . . . . . .

C |-----------------------------------------------------------------|
G |-----------------------------------------------------------------|
D#|-----------------------------------------------------------------|
A#|-------------------------2-2-2-2-1-1-1-1-1-1-1-1-1-1-1-1-1-1-1-1-|
F |-0-0-0-0-0-0-0-0-3-3-3-3-----------------------------------------|
C |-----------------------------------------------------------------|
    . . . . . . . . . . . . . . . .

[Solo]
C |-----------------------------------------------------------------------------------------------------|
G |-----------------------------------------------------------------------------------------------------|
D#|-10-9-7-10-9-7-10-9-7-10-9-7--12-11-9-12-11-9-12-11-9-12-11-9--12-12-12-12-12-12-9-12-12-12-12-12-12-|
A#|-----------------------------------------------------------------------------------------------------|
F |-----------------------------------------------------------------------------------------------------|
C |-----------------------------------------------------------------------------------------------------|

C |------------------------------------------------------------------------------------|
G |-------------------------------------------------------------------------20b----20b-|
D#|-20-19-17-20-19-17-20-19-17-20-19-17-20-19-17-20-19-17-20-19-17-20-19-17------------|
A#|------------------------------------------------------------------------------------|
F |------------------------------------------------------------------------------------|
C |------------------------------------------------------------------------------------|

[Chorus]
C |-----------------------------------------|
G |-----------------------------------------|
D#|-----------------------------------------|
A#|-----------------------------------------|
F |-------------------------------------6p5-|
C |-0-0-0--0-0-0--0-0-0--0-0-0--4p3p0-0-----|
    . . .  . . .  . . .  . . .        .

C |-----------------------------------------|
G |-----------------------------------------|
D#|-----------------------------------------|
A#|-----------------------------------------|
F |-------------------------------------6p5-|
C |-0-0-0--0-0-0--0-0-0--0-0-0--4p3p0-0-----|
    . . .  . . .  . . .  . . .        .

C |-----------------------------------------|
G |-----------------------------------------|
D#|-----------------------------------------|
A#|-----------------------------------------|
F |-------------------------------------6p5-|
C |-0-0-0--0-0-0--0-0-0--0-0-0--4p3p0-0-----|
    . . .  . . .  . . .  . . .        .

C |-----------------------------------------|
G |-----------------------------------------|
D#|-----------------------------------------|
A#|-----------------------------------------|
F |-------------------------------------6p5-|
C |-0-0-0--0-0-0--0-0-0--0-0-0--4p3p0-0-----|
    . . .  . . .  . . .  . . .        .

C |---------------------------------------------------------------------------------------------------|
G |---------------------------------------------------------------------------------------------------|
D#|---------------------------------------------------------------------------------------------------|
A#|---------------------------------------------------------------------------------------------------|
F |-------------------------------------------------7-6-5-6----------------------------------2--------|
C |-0-0-0-0-0-0-0-0-0-0-0-0-0-0-0-0-0-0-0-0-0-0-0-0---------0-0-0-0-0-0-0-0-0-0-0-0-0-0--4-3----4-3-1-|

C |---------------------------------------------------------------------------------------------------|
G |---------------------------------------------------------------------------------------------------|
D#|---------------------------------------------------------------------------------------------------|
A#|---------------------------------------------------------------------------------------------------|
F |-------------------------------------------------7-6-5-6----------------------------------2--------|
C |-0-0-0-0-0-0-0-0-0-0-0-0-0-0-0-0-0-0-0-0-0-0-0-0---------0-0-0-0-0-0-0-0-0-0-0-0-0-0--4-3----4-3-1-|

[Verse]
C |---------------------------------------------------------------------------------------------------|
G |---------------------------------------------------------------------------------------------------|
D#|---------------------------------------------------------------------------------------------------|
A#|---------------------------------------------------------------------------------------------------|
F |-------------------------------------------------7-6-5-6----------------------------------2--------|
C |-0-0-0-0-0-0-0-0-0-0-0-0-0-0-0-0-0-0-0-0-0-0-0-0---------0-0-0-0-0-0-0-0-0-0-0-0-0-0--4-3----4-3-1-|

C |---------------------------------------------------------------------------------------------------|
G |---------------------------------------------------------------------------------------------------|
D#|---------------------------------------------------------------------------------------------------|
A#|---------------------------------------------------------------------------------------------------|
F |-------------------------------------------------7-6-5-6----------------------------------2--------|
C |-0-0-0-0-0-0-0-0-0-0-0-0-0-0-0-0-0-0-0-0-0-0-0-0---------0-0-0-0-0-0-0-0-0-0-0-0-0-0--4-3----4-3-1-|

C |-----------------------------------------------------------------------------------------------------|
G |-----------------------------------------------------------------------------------------------------|
D#|-----------------------------------------------------------------------------------------------------|
A |-----------------------------------------------------------------------------------------------------|
F |-----------------------------------------------------------------------------------------------------|
C |-0-0-0--0-0-0--0-0-0--0-0-0--0-0-0--0-0-0--0-0-0--0-0-0--0-0-0--0-0-0--0-0-0--0-0-0--6-6-6-6-6-6-6-6-|
    . . .  . . .  . . .  . . .  . . .  . . .  . . .  . . .  . . .  . . .  . . .  . . .  . . . . . . . .

C |-----------------------------------------------------------------------------------------------------|
G |-----------------------------------------------------------------------------------------------------|
D#|-----------------------------------------------------------------------------------------------------|
A |-----------------------------------------------------------------------------------------------------|
F |-----------------------------------------------------------------------------------------------------|
C |-0-0-0--0-0-0--0-0-0--0-0-0--0-0-0--0-0-0--0-0-0--0-0-0--0-0-0--0-0-0--0-0-0--0-0-0--6-6-6-6-6-6-6-6-|
    . . .  . . .  . . .  . . .  . . .  . . .  . . .  . . .  . . .  . . .  . . .  . . .  . . . . . . . .

C |-------------------------------------------------------------|
G |-------------------------------------------------------------|
D#|-------------------------------------------------------------|
A#|-------------------------------------------------------------|
F |---------4p3-----3p2-----8p7h8---------4p3-----3p2-----8p7h8-|
C |-0-0-0-0-----0-0-----0-0-------0-0-0-0-----0-0-----0-0-------|
    . . . .     . .     . .       . . . .     . .     . .

C |-------------------------------------------------------------|
G |-------------------------------------------------------------|
D#|-------------------------------------------------------------|
A#|-------------------------------------------------------------|
F |---------4p3-----3p2-----8p7h8---------4p3-----3p2-----8p7h8-|
C |-0-0-0-0-----0-0-----0-0-------0-0-0-0-----0-0-----0-0-------|
    . . . .     . .     . .       . . . .     . .     . .

C |----------------------------------------------------------------------------------|
G |----------------------------------------------------------------------------------|
D#|----------------------------------------------------------------------------------|
A#|---------------1-1-1-1-1-1-1-1-1-1-1-1-1-1-1-1-1-1-1-1-1-1-1-1-1-1-1-1-1-1-1-1----|
F |-2----2b----0-------------------------------------------------------------------0-|
C |----------------------------------------------------------------------------------|

C |-----------------------------------------------------------------------------------|
G |-----------------------------------------------------------------------------------|
D#|-----------------------------------------------------------------------------------|
A#|------/9b-------3-3-3-3-3-3-3-3-3-3-3-3-3-3-3-3-3-3-3-3-3-3-3-3-3-3-3-3-3-3-3-3----|
F |-2-----------0-------------------------------------------------------------------0-|
C |-----------------------------------------------------------------------------------|

C |----------------------------------------------------------------------------------|
G |----------------------------------------------------------------------------------|
D#|----------------------------------------------------------------------------------|
A#|---------------1-1-1-1-1-1-1-1-1-1-1-1-1-1-1-1-1-1-1-1-1-1-1-1-1-1-1-1-1-1-1-1----|
F |-2----2b----0-------------------------------------------------------------------0-|
C |----------------------------------------------------------------------------------|

C |--------------------------------------------------------------------------------|
G |--------------------------------------------------------------------------------|
D#|--------------------------------------------------------------------------------|
A#|------/9b-------3-3-3-3-3-3-3-3-3-3-3-3-3-3-3-3-3-3-3-3-3-3-3-3-3-3-3-3-3-3-3-3-|
F |-2-----------0------------------------------------------------------------------|
C |--------------------------------------------------------------------------------|

[Chorus]
C |-----------------------------------------|
G |-----------------------------------------|
D#|-----------------------------------------|
A#|-----------------------------------------|
F |-------------------------------------6p5-|
C |-0-0-0--0-0-0--0-0-0--0-0-0--4p3p0-0-----|
    . . .  . . .  . . .  . . .        .

C |-----------------------------------------|
G |-----------------------------------------|
D#|-----------------------------------------|
A#|-----------------------------------------|
F |-------------------------------------6p5-|
C |-0-0-0--0-0-0--0-0-0--0-0-0--4p3p0-0-----|
    . . .  . . .  . . .  . . .        .

C |-----------------------------------------|
G |-----------------------------------------|
D#|-----------------------------------------|
A#|-----------------------------------------|
F |-------------------------------------6p5-|
C |-0-0-0--0-0-0--0-0-0--0-0-0--4p3p0-0-----|
    . . .  . . .  . . .  . . .        .

C |-----------------------------------------|
G |-----------------------------------------|
D#|-----------------------------------------|
A#|-----------------------------------------|
F |-------------------------------------6p5-|
C |-0-0-0--0-0-0--0-0-0--0-0-0--4p3p0-0-----|
    . . .  . . .  . . .  . . .        .

C |--------------------------------------------------------------|
G |--------------------------------------------------------------|
D#|--------------------------------------------------------------|
A#|--------------------------------------------------------------|
F |--------------------------------------------------------------|
C |-6p5p0-5p4p0-4p3p0-3p2p0-1h2h3--6p5p0-5p4p0-4p3p0-3p2p0--1--1-|

C |--------------------------------------------------------------|
G |--------------------------------------------------------------|
D#|--------------------------------------------------------------|
A#|--------------------------------------------------------------|
F |--------------------------------------------------------------|
C |-6p5p0-5p4p0-4p3p0-3p2p0-1h2h3--6p5p0-5p4p0-4p3p0-3p2p0--1--1-|

C |-----------------------------------------------------------------|
G |-----------------------------------------------------------------|
D#|-----------------------------------------------------------------|
A#|-------------------------2-2-2-2-1-1-1-1-1-1-1-1-1-1-1-1-1-1-1-1-|
F |-0-0-0-0-0-0-0-0-3-3-3-3-----------------------------------------|
C |-----------------------------------------------------------------|
    . . . . . . . . . . . . . . . .

C |-----------------------------------------------------------------|
G |-----------------------------------------------------------------|
D#|-----------------------------------------------------------------|
A#|-------------------------2-2-2-2-1-1-1-1-1-1-1-1-1-1-1-1-1-1-1-1-|
F |-0-0-0-0-0-0-0-0-3-3-3-3-----------------------------------------|
C |-----------------------------------------------------------------|
    . . . . . . . . . . . . . . . .

C |-----------------------------------------------------------------|
G |-----------------------------------------------------------------|
D#|-----------------------------------------------------------------|
A#|-------------------------2-2-2-2-1-1-1-1-1-1-1-1-1-1-1-1-1-1-1-1-|
F |-0-0-0-0-0-0-0-0-3-3-3-3-----------------------------------------|
C |-----------------------------------------------------------------|
    . . . . . . . . . . . . . . . .

C |-----------------------------------------------------------------|
G |-----------------------------------------------------------------|
D#|-----------------------------------------------------------------|
A#|-------------------------2-2-2-2-1-1-1-1-1-1-1-1-1-1-1-1-1-1-1-1-|
F |-0-0-0-0-0-0-0-0-3-3-3-3-----------------------------------------|
C |-----------------------------------------------------------------|
    . . . . . . . . . . . . . . . .

[Solo]
C |------------------------------------------------------------------------------------------------------|
G |-7h9p7h9p7h9p7h10p7h9p7h9p7h9p7h9p7h9p7h10p7h9p7h9p7--9p7h9p7h9p7h9p7h9p7h9p7h9p7h9p7h9p7h9p7h9p7h9p7-|
D#|------------------------------------------------------------------------------------------------------|
A#|------------------------------------------------------------------------------------------------------|
F |------------------------------------------------------------------------------------------------------|
C |------------------------------------------------------------------------------------------------------|

C |-------------------12p11h12p11h12p11-15p14h15p14h15p14-17p16h17p16h17p16-|
G |-12p11h12p11h12p11-------------------------------------------------------|
D#|-------------------------------------------------------------------------|
A#|-------------------------------------------------------------------------|
F |-------------------------------------------------------------------------|
C |-------------------------------------------------------------------------|

C |-21-21-21-21-21-21-21-21-21-21-21-21-21-21-21-21-21-21--24-24-24-24-24-24-24-24-24--24b-|
G |----------------------------------------------------------------------------------------|
D#|----------------------------------------------------------------------------------------|
A#|----------------------------------------------------------------------------------------|
F |----------------------------------------------------------------------------------------|
C |----------------------------------------------------------------------------------------|

[Chorus]
C |-----------------------------------------|
G |-----------------------------------------|
D#|-----------------------------------------|
A#|-----------------------------------------|
F |-------------------------------------6p5-|
C |-0-0-0--0-0-0--0-0-0--0-0-0--4p3p0-0-----|
    . . .  . . .  . . .  . . .        .

C |-----------------------------------------|
G |-----------------------------------------|
D#|-----------------------------------------|
A#|-----------------------------------------|
F |-------------------------------------6p5-|
C |-0-0-0--0-0-0--0-0-0--0-0-0--4p3p0-0-----|
    . . .  . . .  . . .  . . .        .

C |-----------------------------------------|
G |-----------------------------------------|
D#|-----------------------------------------|
A#|-----------------------------------------|
F |-------------------------------------6p5-|
C |-0-0-0--0-0-0--0-0-0--0-0-0--4p3p0-0-----|
    . . .  . . .  . . .  . . .        .

C |-----------------------------------------|
G |-----------------------------------------|
D#|-----------------------------------------|
A#|-----------------------------------------|
F |-------------------------------------6p5-|
C |-0-0-0--0-0-0--0-0-0--0-0-0--4p3p0-0-----|
    . . .  . . .  . . .  . . .        .

C |-----------------------------------------|
G |-----------------------------------------|
D#|-----------------------------------------|
A#|-----------------------------------------|
F |-------------------------------------6p5-|
C |-0-0-0--0-0-0--0-0-0--0-0-0--4p3p0-0-----|
    . . .  . . .  . . .  . . .        .

C |-----------------------------------------|
G |-----------------------------------------|
D#|-----------------------------------------|
A#|-----------------------------------------|
F |-------------------------------------6p5-|
C |-0-0-0--0-0-0--0-0-0--0-0-0--4p3p0-0-----|
    . . .  . . .  . . .  . . .        .

C |-----------------------------------------|
G |-----------------------------------------|
D#|-----------------------------------------|
A#|-----------------------------------------|
F |-------------------------------------6p5-|
C |-0-0-0--0-0-0--0-0-0--0-0-0--4p3p0-0-----|
    . . .  . . .  . . .  . . .        .

[Outro]
C |------------|
G |------------|
D#|------------|
A#|------------|
F |-2--2--2--2-|
C |-0--0--0--0-|
    .  .  .  .


************************************

| .  Staccato
| h  Hammer-on
| p  Pull-off
| b  Bend
| /  Slide up

************************************

            
            
Suggest correction
Creating personal tab
Creating personal tab
You can edit any tab online and save it as your Personal.

You can edit, replace or remove any tab part or add personal notes – all changes will be seen only by you.

Personal tabs can be accessed anytime from any device, even offline.
Learn more »
Give kudos to tab author, rate the tab!
1 2 3 4 5
comments
print report bad tab
guest
You may want to rate the tab now too:
select rating
Wanna post a correction for this tab? Suggest correction