Oops, an error
Loading. Please wait.

Time Of Death tab

by Nervosa
136 views 3 this week
no commentswrite comment
1 2 3 4 5
3 more votes to show rating
add to favorites
×
Save as Personal and add changes to this tab that will be seen only by you. Learn more ›
×
You can save this tab as Personal to edit and correct it or add notes. All changes will be seen only by you. Learn more »
launch autoscroll
font size
0
reset
how to read this tab
guitar tuner
edit
Autoscroll
slow
fast
+/-
esc
set tempo
stop
Artist: Nervosa
Song: Time Of Death
Album: Time Of Death
Year: 2012
Tabbed By: antichris666

Tuning: C F A# D# G C

[Intro]

C |--------------------------------------------------------------------------------|
G |--------------------------------------------------------------------------------|
D#|--------------------------------------------------------------------------------|
A#|----8-7-----------------8-7-----------------8-7-----------------8-7-------------|
F |-2-------8-7--6-6-5--2-------8-7--6-6-5--2-------8-7--6-6-5--2-------8-7--6-6-5-|
C |-0-------------------0-------------------0-------------------0------------------|

C |----------------------------------------------------------------|
G |----------------------------------------------------------------|
D#|----------------------------------------------------------------|
A#|----------------------------------------------------------------|
F |------------------2---------------2-------------------3-------3-|
C |-0-0-0-0-0-0-0-0--0--0-0-0-0-0-0--0--0-0-0-0-0-0-0-0--1--0-0--1-|
    . . . . . . . .     . . . . . .     . . . . . . . .     . .   

C |-------------------------------------------------------------------|
G |-------------------------------------------------------------------|
D#|-------------------------------------------------------------------|
A#|-------------------------------------------------------------------|
F |------------------2---------------2-------------------3-------3--2-|
C |-0-0-0-0-0-0-0-0--0--0-0-0-0-0-0--0--0-0-0-0-0-0-0-0--1--0-0--1--0-|
    . . . . . . . .     . . . . . .     . . . . . . . .     . .   

[Verse]

C |----------------------------------------------------------------|
G |----------------------------------------------------------------|
D#|----------------------------------------------------------------|
A#|----------------------------------------------------------------|
F |------------------2---------------2-------------------3-------3-|
C |-0-0-0-0-0-0-0-0--0--0-0-0-0-0-0--0--0-0-0-0-0-0-0-0--1--0-0--1-|
    . . . . . . . .     . . . . . .     . . . . . . . .     . .   

C |----------------------------------------------------------------|
G |----------------------------------------------------------------|
D#|----------------------------------------------------------------|
A#|----------------------------------------------------------------|
F |------------------2---------------2-------------------3-------3-|
C |-0-0-0-0-0-0-0-0--0--0-0-0-0-0-0--0--0-0-0-0-0-0-0-0--1--0-0--1-|
    . . . . . . . .     . . . . . .     . . . . . . . .     . .   

C |----------------------------------------------------------------|
G |----------------------------------------------------------------|
D#|----------------------------------------------------------------|
A#|----------------------------------------------------------------|
F |------------------2---------------2-------------------3-------3-|
C |-0-0-0-0-0-0-0-0--0--0-0-0-0-0-0--0--0-0-0-0-0-0-0-0--1--0-0--1-|
    . . . . . . . .     . . . . . .     . . . . . . . .     . .   

C |----------------------------------------------------------------|
G |----------------------------------------------------------------|
D#|----------------------------------------------------------------|
A#|----------------------------------------------------------------|
F |------------------2---------------2-------------------3-------3-|
C |-0-0-0-0-0-0-0-0--0--0-0-0-0-0-0--0--0-0-0-0-0-0-0-0--1--0-0--1-|
    . . . . . . . .     . . . . . .     . . . . . . . .     . .   

C |------------------------------------------------------------|
G |------------------------------------------------------------|
D#|------------------------------------------------------------|
A#|------10----9---------5----4---------10----9---------5----4-|
F |-2----8-----7----2----3----2----2----8-----7----2----3----2-|
C |-0---------------0--------------0---------------0-----------|

C |--------------------------------------------------------------------------------|
G |--------------------------------------------------------------------------------|
D#|--------------------------------------------------------------------------------|
A#|-------------------------------------------------------------5---------4--------|
F |-3---------4---------3---------4---------3---------4---------3---------2--------|
C |-1--0-0-0--2--0-0-0--1--0-0-0--2--0-0-0--1--0-0-0--2--0-0-0-----0-0-0-----0-0-0-|
       . . .     . . .     . . .     . . .     . . .     . . .     . . .     . . .

C |--------------------------------------------------------------------------------|
G |--------------------------------------------------------------------------------|
D#|--------------------------------------------------------------------------------|
A#|-------------------------------------------------------------5---------4--------|
F |-3---------4---------3---------4---------3---------4---------3---------2--------|
C |-1--0-0-0--2--0-0-0--1--0-0-0--2--0-0-0--1--0-0-0--2--0-0-0-----0-0-0-----0-0-0-|
       . . .     . . .     . . .     . . .     . . .     . . .     . . .     . . .

C |---------------------------------------------------------------------------------------------------------|
G |---------------------------------------------------------------------------------------------------------|
D#|---------------------------------------------------------------------------------------------------------|
A#|-------------------------4-4-4-4-4-4-3-3-3-3---------------------------------4-4-4-4-4-4-3-3-3-3---------|
F |-3-3-3-3-3-3-3-3-3-3-3-3---------------------4-4-4-4-3-3-3-3-3-3-3-3-3-3-3-3---------------------4-4-4-4-|
C |---------------------------------------------------------------------------------------------------------|
 
C |---------------------------------------------------------------------------------------------------------|
G |---------------------------------------------------------------------------------------------------------|
D#|---------------------------------------------------------------------------------------------------------|
A#|-------------------------4-4-4-4-4-4-3-3-3-3---------------------------------4-4-4-4-4-4-3-3-3-3---------|
F |-3-3-3-3-3-3-3-3-3-3-3-3---------------------4-4-4-4-3-3-3-3-3-3-3-3-3-3-3-3---------------------4-4-4-4-|
C |---------------------------------------------------------------------------------------------------------|

C |--------------------------------------------------------------------------------------------|
G |--------------------------------------------------------------------------------------------|
D#|--------------------------------------------------------------------------------------------|
A#|--------------------------------------6--9--8---------------------------------------6--9--8-|
F |-3-3-3-3-3-3-3-3-3-3-3-3-4-4-4-4-4-4--4--7--6--3-3-3-3-3-3-3-3-3-3-3-3-4-4-4-4-4-4--4--7--6-|
C |--------------------------------------------------------------------------------------------|
    . . . . . . . . . . . . . . . . . .           . . . . . . . . . . . . . . . . . .

C |--------------------------------------------------------------------------------------------|
G |--------------------------------------------------------------------------------------------|
D#|--------------------------------------------------------------------------------------------|
A#|--------------------------------------6--9--8---------------------------------------6--9--8-|
F |-3-3-3-3-3-3-3-3-3-3-3-3-4-4-4-4-4-4--4--7--6--3-3-3-3-3-3-3-3-3-3-3-3-4-4-4-4-4-4--4--7--6-|
C |--------------------------------------------------------------------------------------------|
    . . . . . . . . . . . . . . . . . .           . . . . . . . . . . . . . . . . . .

C |-------------------------------------------------------------------------------------------------|
G |-------------------------------------------------------------------------------------------------|
D#|-------------------------------------------------------------------------------------------------|
A#|-------------------------------------------------------------------------------------------------|
F |-3-3-3-3-3-3-3-3-3-3-0-0-2-2-2-2-2-2-2-2-2-2-0-0-3-3-3-3-3-3-3-3-3-3-0-0-2-2-2-2-2-2-2-2-2-2-0-0-|
C |-------------------------------------------------------------------------------------------------|
    . . . . . . . . . . . . . . . . . . . . . . . . . . . . . . . . . . . . . . . . . . . . . . . .

C |----------------------------------------------------------------------------------------|
G |----------------------------------------------------------------------------------------|
D#|----------------------------------------------------------------------------------------|
A#|--------------------------------------------------------------------------4--4--4--4--4-|
F |-3-3-3-3-3-3-3-3-3-3-0-0-2-2-2-2-2-2-2-2-2-2-0-0-3-3-3-3-3-3-3-3-3-3-0-0--2--2--2--2--2-|
C |----------------------------------------------------------------------------------------|
    . . . . . . . . . . . . . . . . . . . . . . . . . . . . . . . . . . . . 

C |-------------------------------------------------------------------------------------------------------|
G |-------------------------------------------------------------------------------------------------------|
D#|-------------------------------------------------------------------------------------------------------|
A#|-------------------------------------------------------------------------------------------------------|
F |----------2------------5------------6------------6------------2------------5------------6------------6-|
C |-0-0-0-0--0---3-3-3-3--3---4-4-4-4--4---4-4-4-4--4---0-0-0-0--0---3-3-3-3--3---4-4-4-4--4---4-4-4-4--4-|
    . . . .      . . . .      . . . .      . . . .      . . . .      . . . .      . . . .      . . . .    

C |-------------------------------------------------------------------------------------------------------|
G |-------------------------------------------------------------------------------------------------------|
D#|-------------------------------------------------------------------------------------------------------|
A#|-------------------------------------------------------------------------------------------------------|
F |----------2------------5------------6------------6------------2------------5------------6------------6-|
C |-0-0-0-0--0---3-3-3-3--3---4-4-4-4--4---4-4-4-4--4---0-0-0-0--0---3-3-3-3--3---4-4-4-4--4---4-4-4-4--4-|
    . . . .      . . . .      . . . .      . . . .      . . . .      . . . .      . . . .      . . . .    

C |--------------------------------------|
G |--------------------------------------|
D#|--------------------------------------|
A#|--------------------------------------|
F |-2------5------6------2------3------2-|
C |-0------3------4------0------1------0-|

[Chorus]

C |----------------------------------------------------------------------------------------|
G |----------------------------------------------------------------------------------------|
D#|----------------------------------------------------------------------------------------|
A#|----------------------------------------------------------------------------------------|
F |-2---------5---------6-----------------------2---------3---------2----------------------|
C |-0--0-0-0--3--3-3-3--4--4-4-4-4-4-4-4-4-4-4--0--0-0-0--1--1-1-1--0--0-0-0-0-0-0-0-0-0-0-|
       . . .     . . .     . . . . . . . . . .     . . .     . . .     . . . . . . . . . . 

C |--------------------------------------------------|
G |--------------------------------------------------|
D#|--------------------------------------------------|
A#|--------------------------------------------------|
F |-2---------5---------6-----------------------2--3-|
C |-0--0-0-0--3--3-3-3--4--4-4-4-4-4-4-4-4-4-4--0--1-|
       . . .     . . .     . . . . . . . . . .

C |----------------------------------------------------------------|
G |----------------------------------------------------------------|
D#|----------------------------------------------------------------|
A#|----------------------------------------------------------------|
F |------------------2---------------2-------------------3-------3-|
C |-0-0-0-0-0-0-0-0--0--0-0-0-0-0-0--0--0-0-0-0-0-0-0-0--1--0-0--1-|
    . . . . . . . .     . . . . . .     . . . . . . . .     . .   

C |----------------------------------------------------------------|
G |----------------------------------------------------------------|
D#|----------------------------------------------------------------|
A#|----------------------------------------------------------------|
F |------------------2---------------2-------------------3-------3-|
C |-0-0-0-0-0-0-0-0--0--0-0-0-0-0-0--0--0-0-0-0-0-0-0-0--1--0-0--1-|
    . . . . . . . .     . . . . . .     . . . . . . . .     . .   

[Verse]

C |----------------------------------------------------------------|
G |----------------------------------------------------------------|
D#|----------------------------------------------------------------|
A#|----------------------------------------------------------------|
F |------------------2---------------2-------------------3-------3-|
C |-0-0-0-0-0-0-0-0--0--0-0-0-0-0-0--0--0-0-0-0-0-0-0-0--1--0-0--1-|
    . . . . . . . .     . . . . . .     . . . . . . . .     . .   

C |----------------------------------------------------------------|
G |----------------------------------------------------------------|
D#|----------------------------------------------------------------|
A#|----------------------------------------------------------------|
F |------------------2---------------2-------------------3-------3-|
C |-0-0-0-0-0-0-0-0--0--0-0-0-0-0-0--0--0-0-0-0-0-0-0-0--1--0-0--1-|
    . . . . . . . .     . . . . . .     . . . . . . . .     . .   

C |----------------------------------------------------------------|
G |----------------------------------------------------------------|
D#|----------------------------------------------------------------|
A#|----------------------------------------------------------------|
F |------------------2---------------2-------------------3-------3-|
C |-0-0-0-0-0-0-0-0--0--0-0-0-0-0-0--0--0-0-0-0-0-0-0-0--1--0-0--1-|
    . . . . . . . .     . . . . . .     . . . . . . . .     . .   

C |----------------------------------------------------------------|
G |----------------------------------------------------------------|
D#|----------------------------------------------------------------|
A#|----------------------------------------------------------------|
F |------------------2---------------2-------------------3-------3-|
C |-0-0-0-0-0-0-0-0--0--0-0-0-0-0-0--0--0-0-0-0-0-0-0-0--1--0-0--1-|
    . . . . . . . .     . . . . . .     . . . . . . . .     . .   

C |------------------------------------------------------------|
G |------------------------------------------------------------|
D#|------------------------------------------------------------|
A#|------10----9---------5----4---------10----9---------5----4-|
F |-2----8-----7----2----3----2----2----8-----7----2----3----2-|
C |-0---------------0--------------0---------------0-----------|

C |--------------------------------------------------------------------------------|
G |--------------------------------------------------------------------------------|
D#|--------------------------------------------------------------------------------|
A#|-------------------------------------------------------------5---------4--------|
F |-3---------4---------3---------4---------3---------4---------3---------2--------|
C |-1--0-0-0--2--0-0-0--1--0-0-0--2--0-0-0--1--0-0-0--2--0-0-0-----0-0-0-----0-0-0-|
       . . .     . . .     . . .     . . .     . . .     . . .     . . .     . . .

C |--------------------------------------------------------------------------------|
G |--------------------------------------------------------------------------------|
D#|--------------------------------------------------------------------------------|
A#|-------------------------------------------------------------5---------4--------|
F |-3---------4---------3---------4---------3---------4---------3---------2--------|
C |-1--0-0-0--2--0-0-0--1--0-0-0--2--0-0-0--1--0-0-0--2--0-0-0-----0-0-0-----0-0-0-|
       . . .     . . .     . . .     . . .     . . .     . . .     . . .     . . .

C |---------------------------------------------------------------------------------------------------------|
G |---------------------------------------------------------------------------------------------------------|
D#|---------------------------------------------------------------------------------------------------------|
A#|-------------------------4-4-4-4-4-4-3-3-3-3---------------------------------4-4-4-4-4-4-3-3-3-3---------|
F |-3-3-3-3-3-3-3-3-3-3-3-3---------------------4-4-4-4-3-3-3-3-3-3-3-3-3-3-3-3---------------------4-4-4-4-|
C |---------------------------------------------------------------------------------------------------------|

C |---------------------------------------------------------------------------------------------------------|
G |---------------------------------------------------------------------------------------------------------|
D#|---------------------------------------------------------------------------------------------------------|
A#|-------------------------4-4-4-4-4-4-3-3-3-3---------------------------------4-4-4-4-4-4-3-3-3-3---------|
F |-3-3-3-3-3-3-3-3-3-3-3-3---------------------4-4-4-4-3-3-3-3-3-3-3-3-3-3-3-3---------------------4-4-4-4-|
C |---------------------------------------------------------------------------------------------------------|

C |--------------------------------------------------------------------------------------------|
G |--------------------------------------------------------------------------------------------|
D#|--------------------------------------------------------------------------------------------|
A#|--------------------------------------6--9--8---------------------------------------6--9--8-|
F |-3-3-3-3-3-3-3-3-3-3-3-3-4-4-4-4-4-4--4--7--6--3-3-3-3-3-3-3-3-3-3-3-3-4-4-4-4-4-4--4--7--6-|
C |--------------------------------------------------------------------------------------------|
    . . . . . . . . . . . . . . . . . .           . . . . . . . . . . . . . . . . . .

C |--------------------------------------------------------------------------------------------|
G |--------------------------------------------------------------------------------------------|
D#|--------------------------------------------------------------------------------------------|
A#|--------------------------------------6--9--8---------------------------------------6--9--8-|
F |-3-3-3-3-3-3-3-3-3-3-3-3-4-4-4-4-4-4--4--7--6--3-3-3-3-3-3-3-3-3-3-3-3-4-4-4-4-4-4--4--7--6-|
C |--------------------------------------------------------------------------------------------|
    . . . . . . . . . . . . . . . . . .           . . . . . . . . . . . . . . . . . . 

C |-------------------------------------------------------------------------------------------------|
G |-------------------------------------------------------------------------------------------------|
D#|-------------------------------------------------------------------------------------------------|
A#|-------------------------------------------------------------------------------------------------|
F |-3-3-3-3-3-3-3-3-3-3-0-0-2-2-2-2-2-2-2-2-2-2-0-0-3-3-3-3-3-3-3-3-3-3-0-0-2-2-2-2-2-2-2-2-2-2-0-0-|
C |-------------------------------------------------------------------------------------------------|
    . . . . . . . . . . . . . . . . . . . . . . . . . . . . . . . . . . . . . . . . . . . . . . . .

C |----------------------------------------------------------------------------------------|
G |----------------------------------------------------------------------------------------|
D#|----------------------------------------------------------------------------------------|
A#|--------------------------------------------------------------------------4--4--4--4--4-|
F |-3-3-3-3-3-3-3-3-3-3-0-0-2-2-2-2-2-2-2-2-2-2-0-0-3-3-3-3-3-3-3-3-3-3-0-0--2--2--2--2--2-|
C |----------------------------------------------------------------------------------------|
    . . . . . . . . . . . . . . . . . . . . . . . . . . . . . . . . . . . . 

C |-------------------------------------------------------------------------------------------------------|
G |-------------------------------------------------------------------------------------------------------|
D#|-------------------------------------------------------------------------------------------------------|
A#|-------------------------------------------------------------------------------------------------------|
F |----------2------------5------------6------------6------------2------------5------------6------------6-|
C |-0-0-0-0--0---3-3-3-3--3---4-4-4-4--4---4-4-4-4--4---0-0-0-0--0---3-3-3-3--3---4-4-4-4--4---4-4-4-4--4-|
    . . . .      . . . .      . . . .      . . . .      . . . .      . . . .      . . . .      . . . .    

C |-------------------------------------------------------------------------------------------------------|
G |-------------------------------------------------------------------------------------------------------|
D#|-------------------------------------------------------------------------------------------------------|
A#|-------------------------------------------------------------------------------------------------------|
F |----------2------------5------------6------------6------------2------------5------------6------------6-|
C |-0-0-0-0--0---3-3-3-3--3---4-4-4-4--4---4-4-4-4--4---0-0-0-0--0---3-3-3-3--3---4-4-4-4--4---4-4-4-4--4-|
    . . . .      . . . .      . . . .      . . . .      . . . .      . . . .      . . . .      . . . .    

C |--------------------------------------|
G |--------------------------------------|
D#|--------------------------------------|
A#|--------------------------------------|
F |-2------5------6------2------3------2-|
C |-0------3------4------0------1------0-|

[Outro]

C |----------------------------------------------------------------------------------------|
G |----------------------------------------------------------------------------------------|
D#|----------------------------------------------------------------------------------------|
A#|----------------------------------------------------------------------------------------|
F |-2---------5---------6-----------------------2---------3---------2----------------------|
C |-0--0-0-0--3--3-3-3--4--4-4-4-4-4-4-4-4-4-4--0--0-0-0--1--1-1-1--0--0-0-0-0-0-0-0-0-0-0-|
       . . .     . . .     . . . . . . . . . .     . . .     . . .     . . . . . . . . . . 

C |----------------------------------------------------------|
G |----------------------------------------------------------|
D#|----------------------------------------------------------|
A#|----------------------------------------------------------|
F |-2---------5---------6-----------------------2--3--2----2-|
C |-0--0-0-0--3--3-3-3--4--4-4-4-4-4-4-4-4-4-4--0--1--0----0-|
       . . .     . . .     . . . . . . . . . .

************************************

| .   palm mute
| /   slide up
| \   slide down
| h   hammer-on
| p   pull-off
| ~   vibrato
| +   harmonic
| x   Mute note
| b   Bend
| pb  Pre-bend
| br  Bend release
| pbr Pre-bend release
| brb Bend release bend

************************************

            
            
Suggest correction
Creating personal tab
Creating personal tab
You can edit any tab online and save it as your Personal.

You can edit, replace or remove any tab part or add personal notes – all changes will be seen only by you.

Personal tabs can be accessed anytime from any device, even offline.
Learn more »
Give kudos to tab author, rate the tab!
1 2 3 4 5
comments
print report bad tab
guest
You may want to rate the tab now too:
select rating
Wanna post a correction for this tab? Suggest correction