Oops, an error
Loading. Please wait.

Uranio Em Nos tab

by Nervosa
130 views 3 this week
no commentswrite comment
1 2 3 4 5
2 more votes to show rating
add to favorites
×
Save as Personal and add changes to this tab that will be seen only by you. Learn more ›
×
You can save this tab as Personal to edit and correct it or add notes. All changes will be seen only by you. Learn more »
launch autoscroll
font size
0
reset
how to read this tab
guitar tuner
edit
Autoscroll
slow
fast
+/-
esc
set tempo
stop
Author
Artist: Nervosa
Song: Uranio Em Nos
Album: Victim Of Yourself
Year: 2014
Tabbed by: antichris666

Tuning: C F A# D# G C

[Intro]

C |-------------------------------------------------------------------------|
G |-------------------------------------------------------------------------|
D#|-------------------------------------------------------------------------|
A#|-------------------------------------------------------------------------|
F |-------------------------------------------------------------------------|
C |-1-1-1-1-1-1-2-2-2-2-2-2-3-3-3-3-3-3-1-1-1-1-1-1-2-2-2-2-2-2-3-3-3-3-3-3-|

C |-------------------------------------------------------------------------|
G |-------------------------------------------------------------------------|
D#|-------------------------------------------------------------------------|
A#|-------------------------------------------------------------------------|
F |-------------------------------------------------------------------------|
C |-1-1-1-1-1-1-2-2-2-2-2-2-3-3-3-3-3-3-1-1-1-1-1-1-2-2-2-2-2-2-3-3-3-3-3-3-|

[Verse]

C |-------------------------------------------------------------------------------------------------|
G |-------------------------------------------------------------------------------------------------|
D#|-------------------------------------------------------------------------------------------------|
A#|-------------------------------------------------------------------------------------------------|
F |-2-----------4-----------3-----------2-----------2-----------4-----------3-----------2-----------|
C |-0-0-0-0-0-0-2-0-0-0-0-0-1-0-0-0-0-0-0-0-0-0-0-0-0-0-0-0-0-0-2-0-0-0-0-0-1-0-0-0-0-0-0-0-0-0-0-0-|
      . . . . .   . . . . .   . . . . .   . . . . .   . . . . .   . . . . .   . . . . .   . . . . .

C |-------------------------------------------------------------------------------------------------|
G |-------------------------------------------------------------------------------------------------|
D#|-------------------------------------------------------------------------------------------------|
A#|-------------------------------------------------------------------------------------------------|
F |-2-----------4-----------3-----------2-----------2-----------4-----------3-----------2-----------|
C |-0-0-0-0-0-0-2-0-0-0-0-0-1-0-0-0-0-0-0-0-0-0-0-0-0-0-0-0-0-0-2-0-0-0-0-0-1-0-0-0-0-0-0-0-0-0-0-0-|
      . . . . .   . . . . .   . . . . .   . . . . .   . . . . .   . . . . .   . . . . .   . . . . .

C |-------------------------------------------------------------------------|
G |-------------------------------------------------------------------------|
D#|-------------------------------------------------------------------------|
A#|-------------------------------------------------------------------------|
F |-------------------------------------------------------------------------|
C |-1-1-1-1-1-1-2-2-2-2-2-2-3-3-3-3-3-3-1-1-1-1-1-1-2-2-2-2-2-2-3-3-3-3-3-3-|

C |-------------------------------------------------------------------------------------|
G |-------------------------------------------------------------------------------------|
D#|-------------------------------------------------------------------------------------|
A#|-------------------------------------------------------------------------------------|
F |-------------------------------------------------------------------------------------|
C |-1-1-1-1-1-1-2-2-2-2-2-2-3-3-3-3-3-3-1-1-1-1-1-1-2-2-2-2-2-2-3-3-3-3-3-3-3-3-3-3-3-3-|

[Chorus]

C |------------------------------------------------------------------------------------------------------|
G |------------------------------------------------------------------------------------------------------|
D#|------------------------------------------------------------------------------------------------------|
A#|------------------------------------------------------------------------------------------------------|
F |---------------5-4-----------4-3-------------3---3----------------5-4-----------4-3-------------3---3-|
C |-0-0--0-0-0-0--3-2--0-0-0-0--2-1--0-0-0-0-0--1-0-1--0-0--0-0-0-0--3-2--0-0-0-0--2-1--0-0-0-0-0--1-0-1-|
    . .  . . . .       . . . .       . . . . .    .    . .  . . . .       . . . .       . . . . .    .

C |---------------------------------------------------------------------------------------------------------|
G |---------------------------------------------------------------------------------------------------------|
D#|---------------------------------------------------------------------------------------------------------|
A#|---------------------------------------------------------------------------------------------------------|
F |---------------5-4-----------4-3-------------3---3----------------5-4-----------4-3-------------3---3--2-|
C |-0-0--0-0-0-0--3-2--0-0-0-0--2-1--0-0-0-0-0--1-0-1--0-0--0-0-0-0--3-2--0-0-0-0--2-1--0-0-0-0-0--1-0-1--0-|
    . .  . . . .       . . . .       . . . . .    .    . .  . . . .       . . . .       . . . . .    .
  
C |---------------------------------------------------------------------------------|
G |---------------------------------------------------------------------------------|
D#|---------------------------------------------------------------------------------|
A#|---------------------2-2-2-2-2-2-2-2-2-2---------------------3-3-3-3-3-3-3-3-3-3-|
F |---------------------------------------------------------------------------------|
C |-0-0-0-0-0-0-0-0-0-0---------------------0-0-0-0-0-0-0-0-0-0---------------------|

C |-------------------------------------------------------------------------------------------------|
G |-------------------------------------------------------------------------------------------------|
D#|---------------------------------------------------------------------------------2-2-1-1---------|
A#|---------------------2-2-2-2-2-2-2-2-2-2---------------------1-1-1-1-3-3-3-3-3-3---------2-2-1-1-|
F |-------------------------------------------------------------------------------------------------|
C |-0-0-0-0-0-0-0-0-0-0---------------------0-0-0-0-0-0-0-0-0-0-------------------------------------|

C |---------------------------------------------------------------------------------|
G |---------------------------------------------------------------------------------|
D#|---------------------------------------------------------------------------------|
A#|---------------------2-2-2-2-2-2-2-2-2-2---------------------3-3-3-3-3-3-3-3-3-3-|
F |---------------------------------------------------------------------------------|
C |-0-0-0-0-0-0-0-0-0-0---------------------0-0-0-0-0-0-0-0-0-0---------------------|

C |-------------------------------------------------------------------------------------------------|
G |-------------------------------------------------------------------------------------------------|
D#|---------------------------------------------------------------------------------2-2-1-1---------|
A#|---------------------2-2-2-2-2-2-2-2-2-2---------------------1-1-1-1-3-3-3-3-3-3---------2-2-1-1-|
F |-------------------------------------------------------------------------------------------------|
C |-0-0-0-0-0-0-0-0-0-0---------------------0-0-0-0-0-0-0-0-0-0-------------------------------------|

[Chorus]

C |------------------------------------------------------------------------------------------------------|
G |------------------------------------------------------------------------------------------------------|
D#|------------------------------------------------------------------------------------------------------|
A#|------------------------------------------------------------------------------------------------------|
F |---------------5-4-----------4-3-------------3---3----------------5-4-----------4-3-------------3---3-|
C |-0-0--0-0-0-0--3-2--0-0-0-0--2-1--0-0-0-0-0--1-0-1--0-0--0-0-0-0--3-2--0-0-0-0--2-1--0-0-0-0-0--1-0-1-|
    . .  . . . .       . . . .       . . . . .    .    . .  . . . .       . . . .       . . . . .    .

C |------------------------------------------------------------------------------------------------------|
G |------------------------------------------------------------------------------------------------------|
D#|------------------------------------------------------------------------------------------------------|
A#|------------------------------------------------------------------------------------------------------|
F |---------------5-4-----------4-3-------------3---3----------------5-4-----------4-3-------------3---3-|
C |-0-0--0-0-0-0--3-2--0-0-0-0--2-1--0-0-0-0-0--1-0-1--0-0--0-0-0-0--3-2--0-0-0-0--2-1--0-0-0-0-0--1-0-1-|
    . .  . . . .       . . . .       . . . . .    .    . .  . . . .       . . . .       . . . . .    .
  
C |------------------------------------------------------------------|
G |------------------------------------------------------------------|
D#|------------------------------------------------------------------|
A#|------------------------------------------------------------------|
F |---------------------------3---3----------------------------3---3-|
C |-0-0-0-0--0-0-0--0-0-0--0--1-0-1--0-0-0-0--0-0-0--0-0-0--0--1-0-1-|
    . . . .  . . .  . . .  .    .    . . . .  . . .  . . .  .    .

C |------------------------------------------------------------------|
G |------------------------------------------------------------------|
D#|------------------------------------------------------------------|
A#|------------------------------------------------------------------|
F |---------------------------3---3----------------------------3---3-|
C |-0-0-0-0--0-0-0--0-0-0--0--1-0-1--0-0-0-0--0-0-0--0-0-0--0--1-0-1-|
    . . . .  . . .  . . .  .    .    . . . .  . . .  . . .  .    .

C |---------------------------------------------------------------------------------|
G |---------------------------------------------------------------------------------|
D#|---------------------------------------------------------------------------------|
A#|---------------------2-2-2-2-2-2-2-2-2-2---------------------3-3-3-3-3-3-3-3-3-3-|
F |---------------------------------------------------------------------------------|
C |-0-0-0-0-0-0-0-0-0-0---------------------0-0-0-0-0-0-0-0-0-0---------------------|

C |-------------------------------------------------------------------------------------------------|
G |-------------------------------------------------------------------------------------------------|
D#|---------------------------------------------------------------------------------2-2-1-1---------|
A#|---------------------2-2-2-2-2-2-2-2-2-2---------------------1-1-1-1-3-3-3-3-3-3---------2-2-1-1-|
F |-------------------------------------------------------------------------------------------------|
C |-0-0-0-0-0-0-0-0-0-0---------------------0-0-0-0-0-0-0-0-0-0-------------------------------------|

C |---------------------------------------------------------------------------------|
G |---------------------------------------------------------------------------------|
D#|---------------------------------------------------------------------------------|
A#|---------------------2-2-2-2-2-2-2-2-2-2---------------------3-3-3-3-3-3-3-3-3-3-|
F |---------------------------------------------------------------------------------|
C |-0-0-0-0-0-0-0-0-0-0---------------------0-0-0-0-0-0-0-0-0-0---------------------|

C |---------------------------------------------------------------------------------|
G |---------------------------------------------------------------------------------|
D#|---------------------------------------------------------------------------------|
A#|---------------------2-2-2-2-2-2-2-2-2-2---------------------1-1-1-1-3-3-3-3-3-3-|
F |---------------------------------------------------------------------------------|
C |-0-0-0-0-0-0-0-0-0-0---------------------0-0-0-0-0-0-0-0-0-0---------------------|

C |-----------------------------------------------------------------------------------------|
D |-----------------------------------------------------------------------------------------|
G#|-2-2-2-2-1-1-1-1-------------------------------------------------------------------------|
A#|-----------------2-2-2-2-1-1-1-1-3-3-3-3-1-1-1-1-----------------------------------------|
F |-------------------------------------------------3-3-3-3-2-2-2-2-1-1-1-1-0-0-0-0--2----2-|
C |----------------------------------------------------------------------------------0----0-|
 

************************************
| .   palm mute
| /   slide up
| \   slide down
| h   hammer-on
| p   pull-off
| ~   vibrato
| +   harmonic
| x   Mute note
| b   Bend
| pb  Pre-bend
| br  Bend release
| pbr Pre-bend release
| brb Bend release bend

************************************

            
            
Suggest correction
Creating personal tab
Creating personal tab
You can edit any tab online and save it as your Personal.

You can edit, replace or remove any tab part or add personal notes – all changes will be seen only by you.

Personal tabs can be accessed anytime from any device, even offline.
Learn more »
Give kudos to tab author, rate the tab!
1 2 3 4 5
comments
print report bad tab
guest
You may want to rate the tab now too:
select rating
Wanna post a correction for this tab? Suggest correction