Oops, an error
Loading. Please wait.

Volvamos A Empezar tab

8 views 1 this week
no commentswrite comment
1 2 3 4 5
3 more votes to show rating
add to favorites
×
Save as Personal and add changes to this tab that will be seen only by you. Learn more ›
×
You can save this tab as Personal to edit and correct it or add notes. All changes will be seen only by you. Learn more »
launch autoscroll
font size
0
reset
how to read this tab
guitar tuner
edit
Autoscroll
slow
fast
+/-
esc
set tempo
stop
este es el punteo...con la guitarra...tienen q darle
distorcion con la pedalera para que les salga igual

6-------------------------------------------------
5-------------------------------------------------
4-------------------------------------------------
3--------------------------------------15---15-14-
2-10-10-10-10-10--------15-15-15-15-13----13------
1----------------13-12----------------------------


6-------------------------------------------------
5-------------------------------------------------
4-------------------------------------------------
3--------------------------------------15---15-14-
2-10-10-10-10-10--------15-15-15-15-13----13------
1----------------13-12----------------------------
las notas del punteo son FA LAm LA# FA...!!! despues
las otras notas estan en la otra transcripcion!!!

recuerden que para que el tema suene igual le tienen q
dar distorcion con una buena pedalera...
para consultar ante cualkier duda aca les dejo mi msn
son FER_V_94@

            
            
Suggest correction
Creating personal tab
Creating personal tab
You can edit any tab online and save it as your Personal.

You can edit, replace or remove any tab part or add personal notes – all changes will be seen only by you.

Personal tabs can be accessed anytime from any device, even offline.
Learn more »
Give kudos to tab author, rate the tab!
1 2 3 4 5
comments
print report bad tab
guest
Wanna post a correction for this tab? Suggest correction