Oops, an error
Loading. Please wait.

Right Hand-A-Rama tab

version 3
version 3

Whole song

Interactive

by NetWork
42 views 1 this week
no commentswrite comment
1 2 3 4 5
2 more votes to show rating
add to favorites
×
Save as Personal and add changes to this tab that will be seen only by you. Learn more ›
×
You can save this tab as Personal to edit and correct it or add notes. All changes will be seen only by you. Learn more »
launch autoscroll
font size
0
reset
how to read this tab
guitar tuner
edit
Autoscroll
slow
fast
+/-
esc
set tempo
stop
Author
Difficulty
The Network - Right Hand-a-Rama
2003


STANDARD TUNING

Verses
e|--------------------------------------------------------|
B|--------------------------------------------------------|
G|------8-9------11-11------------------------------------|
D|-9-9--8-9------11-11--8-9-------------------------------|
A|-9-9--6-7------9--9---8-9-------------------------------|  x8
E|-7-7------------------6-7-------------------------------|
  I'm taking a ride to the liquor store....



Chorus
e|--------------------------------------------------------|
B|--------------------------------------------------------|
G|--------------------------------------------------------|
D|-7-7-7-7---4-4-4-4--------------------------------------|
A|-7-7-7-7---4-4-4-4--------------------------------------|  x4
E|-5-5-5-5---2-2-2-2--------------------------------------|
  I don't know why....


Between the chorus and the second verse, play the verse riff two times! After the last (second) chorus too.

            
            
Suggest correction
Creating personal tab
Creating personal tab
You can edit any tab online and save it as your Personal.

You can edit, replace or remove any tab part or add personal notes – all changes will be seen only by you.

Personal tabs can be accessed anytime from any device, even offline.
Learn more »
Give kudos to tab author, rate the tab!
1 2 3 4 5
comments
print report bad tab
guest
You may want to rate the tab now too:
select rating
Wanna post a correction for this tab? Suggest correction