Oops, an error
Loading. Please wait.

Supermodel Robots Tab

version 1
version 1

Whole song

Interactive

by NetWork
1,355 views 3 this week
4 commentsread comments
1 2 3 4 5
x 9
add to favorites
launch autoscroll
font size
0
reset
how to read this tab
guitar tuner
×
Best way to learn
"Supermodel Robots"
Autoscroll
slow
fast
+/-
esc
set tempo
stop
itle:SuperModel Robots
Artist: The Network

This is from The Networks first album Money Money 2020

Tuning: Normal


  This is basically the whole song except for this one other part.
  Also listen to song for correct timing.
e--------------------------------
B--------------------------------
G----------------9-9-------------
D-9-9-9-9--7-7---9-9-------------
A-9-9-9-9--7-7---7-7-------------
E-7-7-7-7--5-5-------------------


  This is the part when they start going "Ohhh" or something along the
  lines of that.
e---------------------------------
B---------------------------------
G---------------------------------
D---------------------------------
A---------------------------------
E-2--0--2--0--2-------------------

thats it. any problems email me at airwalk_1000@hotmail.com
Suggest correction
comments
print report bad tab
4 comments total. Showing first comments.
0 reply
nimrodidiot 10 Aug 06, 2007 09:17 AM

Great tab. But for some reason, when I listen to the song, I think it's:

|------------------------------------
|------------------------------------
|-----------------9--8---------------
|-9-9-9-9---7-7---9--8---------------
|-9-9-9-9---7-7---7--6---------------
|-7-7-7-7---5-5----------------------

Or maybe I'm just hearing things. Great job.

-1 reply
jay3213 175 Apr 08, 2009 12:22 PM

you kinda did it wrong. theres more to the song then just those 2 verses

0 reply
voiceofandevil 10 Oct 24, 2010 03:25 PM

id have to agree with nimrod idiot, it sounds better but otherwise im satisfied with this tab, thanks.

guest
You may want to rate the tab now too:
select rating
Wanna post a correction for this tab? Suggest correction