Oops, an error
Loading. Please wait.

A Sun That Never Sets Tab

2,454 views 3 this week
no commentswrite comment
1 2 3 4 5
x 3
add to favorites
launch autoscroll
font size
0
reset
how to read this tab
guitar tuner
Autoscroll
slow
fast
+/-
esc
set tempo
stop
Help us to improve Ultimate-Guitar.com Take our survey!
×
Author
Difficulty
novice
A Sun that Never Sets - Neurosis
Guitar 1 - Scott Kelly DADGBe  Guitar 2 - Steve Von Till - DADGAd

intro
/Guitar 1
e-------------------------|
B-------------------------|
G-------------------------|
D-only 1st time-----------|
A-2/5~-----------3--2/5~--|
D-------------------------|

d-------------------------|
A-------------------------|
G-------------------------|
D-only 1st time-----------|
A-2/5~-----------3--2/5~--|
D-------------------------|
\Guitar 2
Verse
/Guitar 1
e-------------0---0-------   -----------------0---0-------|
B-------------5---5--8b---   -----------------5---5--8b---|
G-------------0---0-------   -----------------0---0-------| change to this
D-0~----------3---5-------   -0~---3-2-3---2--3---5-------| near the end
A-0~----------------------   -0~--------------------------|
D-0~----------------------   -0~--------------------------|

d-------------------------   --------------------------------------------|
A-------------8---10------   --------------------------------------------|
G-------------7---8-------   -10-9-10-9-10-9-10----10-9-10-12-10-9-10----|
D-0~----------7---7-------   -------------------12--------------------12-|
A-0~----------------------   --------------------------------------------|
D-0~----------------------   --------------------------------------------|
\Guitar 2
Outro is the same as the intro

Lyrics
A sun that never sets burns on.
New light is this river's dawn.

When to speak of a word so old
is to relearn what is known.
A time to think back and move on.
Rebuild the loves of lives long gone.

The blood that flows through me is not my own.
The blood is from the past, not my own.
The blood that leads my life is not my own.
The blood is strength, I'm not alone
Suggest correction
Give kudos to tab author, rate the tab!
1 2 3 4 5
comments
print report bad tab
guest
You may want to rate the tab now too:
select rating
Wanna post a correction for this tab? Suggest correction