Oops, an error
Loading. Please wait.

Locust Star tab

version 2
version 2

Whole song

Interactive

3,374 views 24 this week
1 commentread comment
1 2 3 4 5
x 5
add to favorites
×
Save as Personal and add changes to this tab that will be seen only by you. Learn more ›
×
You can save this tab as Personal to edit and correct it or add notes. All changes will be seen only by you. Learn more »
launch autoscroll
font size
0
reset
how to read this tab
guitar tuner
edit
Autoscroll
slow
fast
+/-
esc
set tempo
stop
Locust Star - Neurosis - Through Silver in Blood
Guitar 1 - Scott Kelly Tuning DADGBe Guitar 2 - Steve Von Till Tuning DADGAd

Opening - both guitars play the same riff
e------------------------------------|
B------------------------------------|
G-------7----------------7-----------|
D-----0-------0--------0-------0-----|
A---8-------8--------7-------7-------|
D-0-------0--------0-------0---------|

Main Riff
/Guitar 1
e----------------------------------------------------------------------------|
B----------------------------------------------------------------------------|
G-7-7-7-7-7-10-10-10-10-10-10-10-10-10-10-7-7-7-7-7-10-10-10-10-9-9-9-9-9-9--|
D-0-0-0-0-0-0--0--0--0--0--0--0--0--0--0--7-7-7-7-7-7--7--7--7--7-7-7-7-7-7--|
A-8-8-8-8-8-8--8--8--8--8--8--8--8--8--8--7-7-7-7-7-7--7--7--7--7-7-7-7-7-7--|
D-0-0-0-0-0-0--0--0--0--0--0--0--0--0--0--0-0-0-0-0-0--0--0--0--0-0-0-0-0-0--|

d----------------------------------------------------------------------------|
A----------------------------------------------------------------------------|
G-7-7-7-7-7-10-10-10-10-10-10-10-10-10-10-7-7-7-7-7-10-10-10-10-9-9-9-9-9-9--|
D-0-0-0-0-0-0--0--0--0--0--0--0--0--0--0--0-0-0-0-0-0--0--0--0--0-0-0-0-0-0--|
A-0-0-0-0-0-0--0--0--0--0--0--0--0--0--0--0-0-0-0-0-0--0--0--0--0-0-0-0-0-0--|
D-0-0-0-0-0-0--0--0--0--0--0--0--0--0--0--0-0-0-0-0-0--0--0--0--0-0-0-0-0-0--|
\Guitar 2

Bridge
/Guitar 1
e----------------------------------|
B----------------------------------|
G-7---7-7-----7---7---7-7-----7--7-|
D-0---0-0-----0---0---0-0-----0--0-|
A-8---8-8-----8---7---7-7-----7--7-|
D-0-0-0-0---0-0---0-0-0-0---0-0--0-|

d----------------------------------|
A-12---12\8---8///12----12\\\8---8-|
G-13---13\9---9///13----13\\\9---9-|
D----------------------------------|
A----------------------------------|
D----------------------------------|
\Guitar 2

Chorus/Stars Rain down
/Guitar 1
e-----------------------------------------------------------|
B-----------------------------------------------------------|
G-----------------------------------------------------------|
D-3~--3~--3~--3~-2~-2-2-2-2-2-3~~~~~~~3~~~~~~2~-2-2-2-2-2---|
A-x---x---x---x--x--x-x-x-x-x----------------x--x-x-x-x-x---|
D-3~--3~--3~--3~-2~-2-2-0-2-2----------------2~-2-2-0-2-2---|

d-----------------------------------------------------------|
A-----------------------------------------------------------|
G-----------------------------------------------------------|
D-3~--3~--3~--3~-2~-2-2-2-2-2-3~--3~--3~--3~-2~-2-2-2-2-2---|
A-x---x---x---x--x--x-x-x-x-x-x---x---x---x--x--x-x-x-x-x---|
D-3~--3~--3~--3~-2~-2-2-0-2-2-3~--3~--3~--3~-2~-2-2-0-2-2---|
\Guitar 2

Outro
/Guitar 1
e------------------------------------------------------------|
B------------------------------------------------------------|
G-2-2-2-2-2-----------------------2-2-2-2-2------------------|
D-0-0-0-0-0-3-3-3-3-3-3-3-3-3-3-3-0-0-0-0-0-3-3-3-2-2-2-2-2--|
A-0-0-0-0-0-3-3-3-3-3-3-3-3-3-3-3-0-0-0-0-0-3-3-3-2-2-2-2-2--|
D-0-0-0-0-0-3-3-3-3-3-3-3-3-3-3-3-0-0-0-0-0-3-3-3-2-2-2-2-2--|

d-------------------------------------------------------------|
A-------------------------------------------------------------|
G-2-2-2-2-2-----------------------2-2-2-2-2-------------------|
D-0-0-0-0-0-3-3-3-3-3-3-3-3-3-3-3-0-0-0-0-0-3-3-3-2-2-2-2-2---|
A-0-0-0-0-0-3-3-3-3-3-3-3-3-3-3-3-0-0-0-0-0-3-3-3-2-2-2-2-2---|
D-0-0-0-0-0-3-3-3-3-3-3-3-3-3-3-3-0-0-0-0-0-3-3-3-2-2-2-2-2---|
\Guitar 2

Lyrics-
Rise
shining blank
Scars burn way down
It parts ways of the
Serpent view - cast
Stones where to stop
Calling you - they all
Lower me to the ground
Stick him - they all
Lower me to the soil
Stick him

Star - reign down
On you

You'll starve
Bright star in the
Dripping sun
Writhe on - saints
Steal from your actions
Step in right on it's
Function - stick him

Stars - reign down
On you

You all lower me
Christ's shine blinds
Your world
Your belief is scars

The will to power
Ascension manifest
That which is above
Is as that which is below
Thy will be done
Thy kingdom come
On earth as it is in heaven
So mote it be

            
            
Suggest correction
Creating personal tab
Creating personal tab
You can edit any tab online and save it as your Personal.

You can edit, replace or remove any tab part or add personal notes – all changes will be seen only by you.

Personal tabs can be accessed anytime from any device, even offline.
Learn more »
comments
print report bad tab
1 comment total.
0 reply
DominionMM1 10 May 12, 2013 01:39 PM

pretty good. much better than the other tabs I've seen.

guest
You may want to rate the tab now too:
select rating
Wanna post a correction for this tab? Suggest correction