Oops, an error
Loading. Please wait.

Shelter Tab

version 1
version 1

Whole song

Interactive

1,044 views 1 this week
no commentswrite comment
1 2 3 4 5
please rate
add to favorites
launch autoscroll
font size
0
reset
how to read this tab
guitar tuner
Autoscroll
slow
fast
+/-
esc
set tempo
stop
Help us to improve Ultimate-Guitar.com Take our survey!
×
Author
Difficulty
novice
-------------------------------------------------------------------------------
                             Shelter - Neurosis
-------------------------------------------------------------------------------
 Tabbed by: betadom
 Email: mondkult@hispeed.ch
 From the Album "The Eye of Every Storm"

 Sometimes i don't know what instrument plays, Guitar or Syntheziser. Try it on
 your own ;)
-------------------------------------------------------------------------------



Tuning: EADGBE



....................
:Start at 1:02 min :
....................


Guitar 1
________

e|---------------------------------------------------------------------------|
B|---------------------------------------------------------------------------|
G|-2----2------2-2-2-2-9-9-9-9-----------------------------------------------| 4x
D|-2----2------2-2-2-2-9-9-9-9-----------------------------------------------|
A|-0----0------0-0-0-0-7-7-7-7-----------------------------------------------|
E|---------------------------------------------------------------------------|


Guitar 2
________

e|---------------------------------------------------------------------------|
B|---------------------------------------------------------------------------|
G|---------------------9-9-9-9-----------------------------------------------| 4x
D|-------------7-7-7-7-9-9-9-9-----------------------------------------------|
A|-------------7-7-7-7-7-7-7-7-----------------------------------------------|
E|-------------5-5-5-5-------------------------------------------------------|


Guitar 3
________

e|---------------------------------------------------------------------------|
B|---------------------------------------------------------------------------|
G|---------------------------4-(with a cool effect)--------------------------| 4x
D|---------------------------------------------------------------------------|
A|---------------------------------------------------------------------------|
E|---------------------------------------------------------------------------|


Guitar 1 (2:02 min)
___________________

e|---------------------------------------------------------------------------|
B|----1-------1-------1---0---1----------------------------------------------|
G|--------2-------2---------------2------------------------------------------| 4x alone
D|---------------------------------------------------------------------------|
A|--0---0---0---0---0---0---0---0--------------------------------------------|
E|---------------------------------------------------------------------------|


Guitar 2 (2:22 min)
___________________

e|---------------------------------------------------------------------------|
B|---------------------------------------------------------------------------|
G|----4-------5------4-------------------------------------------------------|
D|----4-------5------4-------------------------------------------------------|
A|--7/2-2p3p2-3----7/2-0-----------------------------------------------------|
E|---------------------------------------------------------------------------|


Guitar 3 (2:22 min)
___________________

e|---------------------------------------------------------------------------|
B|--7-(if it's a guitar)-----------------------------------------------------|
G|---------------------------------------------------------------------------|
D|---------------------------------------------------------------------------|
A|---------------------------------------------------------------------------|
E|---------------------------------------------------------------------------|


Guitar 4 (3:03 min)
___________________

e|---------------------------------------------------------------------------|
B|---------------------------------------------------------------------------|
G|--5-4-4p5p4-5----5-4-2-----------------------------------------------------|
D|---------------------------------------------------------------------------|
A|---------------------------------------------------------------------------|
E|---------------------------------------------------------------------------|


All Guitars (4:04 min)
______________________

e|---------------------------------------------------------------------------|
B|---------------------------------------------------------------------------|
G|-2-5--4-2-4/5/4------------------------------------------------------------| 16x
D|-2-5--4-2-4/5/4------------------------------------------------------------|
A|-0-3--2-0-2/3/2------------------------------------------------------------|
E|---------------------------------------------------------------------------|


Guitar 1 (4:56 min)
___________________

e|---------------------------------------------------------------------------|
B|---------------------------------------------------------------------------|
G|--2-2-2-2-9-9-9-9--2-------------------------------------------------------|
D|--2-2-2-2-9-9-9-9--2-------------------------------------------------------|
A|--0-0-0-0-7-7-7-7--0-------------------------------------------------------|
E|---------------------------------------------------------------------------|


Guitar 2 (4:56 min)
___________________

e|---------------------------------------------------------------------------|
B|---------------------------------------------------------------------------|
G|----------9-9-9-9----------------------------------------------------------|
D|--7-7-7-7-9-9-9-9----------------------------------------------------------|
A|--7-7-7-7-7-7-7-7----------------------------------------------------------|
E|--5-5-5-5------------------------------------------------------------------|


Guitar 3 (4:56 min)
___________________

e|---------------------------------------------------------------------------|
B|---------------------------------------------------------------------------|
G|-------------------4-(with a cool effect)----------------------------------|
D|---------------------------------------------------------------------------|
A|---------------------------------------------------------------------------|
E|---------------------------------------------------------------------------|




| /  slide up
| \  slide down
| h  hammer-on
| p  pull-off
| ~  vibrato
| +  harmonic
| x  Mute note
===============================================================================
Suggest correction
What's this?
You can suggest a correction to this tab. Community and Mods will review your correction and vote to approve or reject it.
comments
We did not receive enough feedback on this tab! Please rate:
print report bad tab
1 2 3 4 5
guest
You may want to rate the tab now too:
select rating
Please do not post tabs as comments. Select "correction" instead!