Oops, an error
Loading. Please wait.

Verdun 1916 Tab

version 1
version 1

Whole song

Interactive

535 views 1 this week
no commentswrite comment
1 2 3 4 5
please rate
add to favorites
launch autoscroll
font size
0
reset
how to read this tab
guitar tuner
Autoscroll
slow
fast
+/-
esc
set tempo
stop
Help us to improve Ultimate-Guitar.com Take our survey!
×
Difficulty
intermediate
Band : Neurosis inc
song verdum 1916
album : verdum 1916

tuning E 
musica y letra  by jorge Mackenzie
Ritmo 1 ; Rhythm 1
|-------------------------------------------------------------------|
|-------------------------------------------------------------------|
|-7-----7-----7-----5-7-5-3-----3-5-3-2-----0-----2-----2-----2-----| X2
|---0-0---0-0---0-0---------0-0---------0-0---0-0---0-0---0-0---0-0-|
|-------------------------------------------------------------------|
|-------------------------------------------------------------------|

Ritmo 2 
|---------------------------------------------------------|
|---------------------------------------------------------|
|---------------------------------------------------------|x 2 veces
|-7-----7-----7-----7-10-----8-----8-----8-----8-10-10-10-|
|---8-8---8-8---8-8------8-7---7-7---7-7---7-7------------|
|---------------------------------------------------------|

Ritmo 3 
|-------------------------------------------------------------------------|
|-------------------------------------------------------------------------|
|-7-----7-----7-----7-----5-----5-----5-----5-----7-----7-----7-----7-----|
|---0-0---0-0---0-0---0-0---7-7---7-7---7-7---7-7---0-0---0-0---0-0---0-0-|
|-------------------------------------------------------------------------|
|-------------------------------------------------------------------------|

------------------------------------------------------------------------------|
------------------------------------------------------------------------------|
-5-----5-----5-----5-----3-----3-----3-----3-----5-----5-----5-----5---10-(7)-| x 1 vez/
---7-7---7-7---7-7---7-7---5-5---5-5---5-5---5-5---7-7---7-7---7-7---7--0-(0)-|  time
------------------------------------------------------------------------------|     
------------------------------------------------------------------------------|
distortion full

Riff 1 (Las avez)

  PM----------------|    PM---------------|       
|---------------------------------------------|
|---------------------------------------------|
|-------------------3-3-------------------3-3-|
|-------------------3-3-------------------3-3-|
|-------------------1-1-------------------1-1-|
|-0-0--0-0-0--0-0-0-----0-0--0-0-0--0-0-0-----|

 PM----------------|    PM--------------|       
|---------------------------------------------|
|---------------------------------------------|
|---------------------------------------------| x 4 veces/times
|-------------------3-3-------------------3-3-|
|-------------------3-3-------------------3-3-|
|-0-0--0-0-0--0-0-0-1-1-0-0--0-0-0--0-0-0-1-1-|


Riff 2 Arpeggio x 2 veces/times
|-------------------------------------------------------------------------|
|-------------------------------------------------------------------------|
|-------------------------------------------------------------------------|
|-----0-----0-----2-----2-----0-----0-----2-----2-----3-----3-----2-----2-|
|---4-----4-----4-----4-----4-----4-----4-----4-----5-----5-----4-----4---|
|-2-----2-----2-----2-----2-----2-----2-----2-----0-----0-----0-----0-----|

Riff 3

PM-----------|T     PM---------|T
|-------------------------------------|
|-------------------------------------|
|-------------------------------------|
|-------------------------------------|
|-5-5-5-4-4-3-2(2)--5-5-5-4-4-3-2-(2)-|
|-3-3-3-2-2-1-0(0)--3-3-3-2-2-1-0-(0)-|

|---------------------------|
|---------------------------|
|---------------------------|
|---------------------------| x 2 veces/times 
|-5-5-5-5-5-5-5-4-4-3-2-(2)-|
|-3-3-3-3-3-3-3-2-2-1-0-(0)-|

|------------------------------|
|------------------------------|
|------------------------------|
|------------------------------| x 2 veces/times
|-7-7-7-7-7-7-7-10-10-10-9-(9)-|
|-5-5-5-5-5-5-5--8--8--8-7-(7)-|

Riff 4 (ellos jovenes)
|--------------------------------------|
|--------------------------------------|
|--------------------------------------|
|--------------------------------------|
|-3-3-2----------2---------2---------2-|
|-1-1-0--0-0-0-0---0-0-0-0---0-0-0-0---|

Final del Riff 4; End of Riff 4
|-------------------------------|
|-------------------------------|
|-------------------------------|
|-------------------------------| x 4 veces/times
|-3-3-5-5-5-5-5-5-5-4-4-4-4-4-4-|
|-1-1-3-3-3-3-3-3-3-2-2-2-2-2-2-|

Guitarra 2  Final del riff  End of Riff 4
|-------------------------------|
|-------------------------------|
|-------------------------------|
|-----5-------------4-----------|
|-3-3---------------------------|
|-1-1-3-------------2-----------|

Riff 5 (x 2 veces/times)

|---------------------------------------------------------------------------------|
|---------------------------------------------------------------------------------|
|---------------------------------------------------------------------------------|
|-------------------3-------------------3-----------------------------------------| 
|-2-2--2-2-2--2-2-2-1-2-2--2-2-2--2-2-2-1-2-2--2-2-2--2-2-2-3-2-2--2-2-2--2-2-2-3-|
|-0-0--0-0-0--0-0-0---0-0--0-0-0--0-0-0---0-0--0-0-0--0-0-0-1-0-0--0-0-0--0-0-0-1-|

Riff 6

Guitarra 1                                        Guitarra 2
|-------------------------|                  |-------------------------|
|-------------------------|                  |-------------------------|
|-------------------------|                  |-------------------------|
|-------------------------| x 4 veces/times  |-3---4---5-5-5-5-5-5-5-5-|
|-3---4---5-5-5-5-5-5-5-5-|                  |-------------------------|
|-1-0-2-0-3-3-3-3-3-3-3-3-|                  |-1-0-2-0-3-3-3-3-3-3-3-3-|

Riff 7 (Esto no es un cuento)

   PM      PM-------------------|
|-------------------------------|
|-------------------------------|
|-------------------------------|
|-------------------------------|
|-5---4-5-4---------------------|
|-3-0-2-3-2-0-0-0-0-0-0-0-0-0-0-|

end part
|---------------|
|---------------|
|---------------|
|---------------|
|-5-5-5-4-4-3-2-|
|-3-3-3-2-2-1-0-|
Suggest correction
Give kudos to tab author, rate the tab!
1 2 3 4 5
comments
print report bad tab
guest
You may want to rate the tab now too:
select rating
Please do not post tabs as comments. Select "correction" instead!