Oops, an error
Loading. Please wait.

In The Aeroplane Over The Sea tab

version 1
version 1

Whole song

  • Just changed the tabber to my personal name rather than username.

Interactive

2,002 views 18 this week
1 commentread comment
1 2 3 4 5
x 7
add to favorites
×
Save as Personal and add changes to this tab that will be seen only by you. Learn more ›
×
You can save this tab as Personal to edit and correct it or add notes. All changes will be seen only by you. Learn more »
launch autoscroll
font size
0
reset
how to read this tab
guitar tuner
edit
Autoscroll
slow
fast
+/-
esc
set tempo
stop
Author
Difficulty
intermediate
About this tab version
Just changed the tabber to my personal name rather than username. Was this info helpful? Yes No
Artist: Neutral Milk Hotel
Album: In the Aeroplane Over the Sea
Song: In the Aeroplane Over the Sea

Fingerstyle

Tabbed: James Hinton
Please leave 5* or a correction

                                                                               _ _ _ _ _ _ _ _ _ _ _ _ _ 
                                                                              | 1.                       \   
e|-----3--3--3---1--0------|-----0--0--0-------------|-------------------------|-------------------------|
B|-----1-----1-------------|--1--------1----3--1-----|--1--1--1--1-----1-------|--0--0--1--3-------------| 
G|-----0-----0-------------|-----------2-------------|--2-----------2----------|--0----------------------|
D|-----2-------------------|----------------2--------|--3--------3-------------|--0---------------0------|
A|--3------------2---------|--0----------------------|-------------------------|---------------0---------|
E|-------------------------|-------------------------|-------------------------|--3----------------------|


  _ _ _ _ _ _ _ _ _ _ _ _ _ 
 | 2.      
e|-------------------0-----|-------------3---7-------|--7--5---------5--5------|--5------5--5--------3----|
B|--0--0--1--3-------------|--5-------5--------------|-------------------------|---------6--6-------------|
G|--0----------------------|--------5----------------|------------5------------|---------5--5-------------|
D|--0------------0---------|-----5-------------------|---------7---------------|-----7----------7---------|
A|-------------------------|--3----------------------|--0----------------------|--8-----------------------|
E|--3----------------------|-------------------------|-------------------------|--------------------------|

e|--3--0------------3-----|
B|--0--0---3--------------|
G|--0--0--------0---------|
D|-----------0------------|
A|------------------------|
E|--3---------------------|

e|--0----------------------|-------------------------|-------------------0-----|--------------------------|
B|-----------3--1----------|-----------0--1--3-------|--3-----1--3-------------|--0-----------------------|
G|--------0----------2-----|--2-----2----------------|-----2---------2---------|--------0---------0-------|
D|-----2-------------------|-----2-------------------|--3----------------------|-----0-----0--2-----------|
A|--3----------------------|--0----------------------|-------------------------|--------------------------|
E|-------------------------|-------------------------|-------------------------|--3-----------------------|

Repeat until end

e|--0---------------------|
B|--1---------------------|
G|--0---------------------|
D|--2---------------------|
A|--3---------------------|
E|------------------------|

            
            
Suggest correction
Creating personal tab
Creating personal tab
You can edit any tab online and save it as your Personal.

You can edit, replace or remove any tab part or add personal notes – all changes will be seen only by you.

Personal tabs can be accessed anytime from any device, even offline.
Learn more »
comments
print report bad tab
1 comment total.
0 reply
hkkhdsjkdshfakj 33 May 03, 2017 10:29 AM

didn't like this contribution

guest
You may want to rate the tab now too:
select rating
Wanna post a correction for this tab? Suggest correction