Oops, an error
Loading. Please wait.

Like A Nightmare tab

202 views 3 this week
3 commentsread comments
1 2 3 4 5
1 last vote to show rating
add to favorites
×
Save as Personal and add changes to this tab that will be seen only by you. Learn more ›
×
You can save this tab as Personal to edit and correct it or add notes. All changes will be seen only by you. Learn more »
launch autoscroll
font size
0
reset
how to read this tab
guitar tuner
edit
Autoscroll
slow
fast
+/-
esc
set tempo
stop
About this tab version
First complete version of Like A Nightmare. Was this info helpful? Yes No
Never Say Die - Like A Nightmare
Tabbed by: Matt Benecke
Email: lpwjbklyn@gmail.com
Tuning: Drop Db (low to high Db Ab Db Gb Bb Eb)

[Intro](0:00 - 0:24)
[Guitar 1](Electric) (0:00 - 0:24) (Riff 1  x1)
[Riff 1]
Eb|-------------------------------|-------------------------------|---------------------------------|
Bb|-------------------------------|-------------------------------|---------------------------------|
Gb|-------------------------------|-------------------------------|---------------------------------|
Db|-----------------------------1-|-----------------------------1-|-----------------------------1---|
Ab|---3-5---6-5-3-5---3-5---6-5-1-|---3-5---6-5-3-5---3-5---6-5-1-|---3-5---6-5-3-5---3-5---6-5-1---|
Db|-0-----0---------0-----0-----1-|-0-----0---------0-----0-----1-|-0-----0---------0-----0-----1---|

Eb|-------------------------------|-------------------------------|---------------------------------|
Bb|-------------------------------|-------------------------------|---------------------------------|
Gb|-------------------------------|-------------------------------|---------------------------------|
Db|-----------------------------1-|-----------------------------1-|-----------------------------1---|
Ab|---3-5---6-5-3-5---3-5---6-5-1-|---3-5---6-5-3-5---3-5---6-5-1-|---3-5---6-5-3-5---3-5---6-5-1---|
Db|-0-----0---------0-----0-----1-|-0-----0---------0-----0-----1-|-0-----0---------0-----0-----1---|

Eb|-------------------------------|--------------------------------|
Bb|-------------------------------|--------------------------------|
Gb|-------------------------------|--------------------------------|
Db|-----------------------------1-|-----------------------------1--|
Ab|---3-5---6-5-3-5---3-5---6-5-1-|---3-5---6-5-3-5---3-5---6-5-1--|
Db|-0-----0---------0-----0-----1-|-0-----0---------0-----0-----1--|
*See Note At End Of Tab

[Verse 1](0:24 - 0:50)
[Guitar 1](Electric) (0:36 - 0:50) (Riff 1a  x1)
[Riff 1a]
Eb|-------------------------------|-------------------------------|---------------------------------|
Bb|-------------------------------|-------------------------------|---------------------------------|
Gb|-------------------------------|-------------------------------|---------------------------------|
Db|-----------------------------1-|-----------------------------1-|-----------------------------1---|
Ab|---3-5---6-5-3-5---3-5---6-5-1-|---3-5---6-5-3-5---3-5---6-5-1-|---3-5---6-5-3-5---3-5---6-5-1---|
Db|-0-----0---------0-----0-----1-|-0-----0---------0-----0-----1-|-0-----0---------0-----0-----1---|
  pm. . . . . . . . . . . . . . .   . . . . . . . . . . . . . . .   . . . . . . . . . . . . . . . 

Eb|-------------------------------|-----------------|
Bb|-------------------------------|-----------------|
Gb|-------------------------------|-----------------|
Db|-----------------------------1-|-1-1-1--1--1-----|
Ab|---3-5---6-5-3-5---3-5---6-5-1-|-1-1-1--1--1-----|
Db|-0-----0---------0-----0-----1-|-1-1-1--1--1-----|
  pm. . . . . . . . . . . . . . .   . .    .

[Chorus 1](0:51 - 1:14)
[Guitar 1](Electric) (Riff 2  x1)

[Riff 2]           
Eb|----------------------------------------------|-------------------------------------------------|
Bb|----------------------------------------------|-------------------------------------------------|
Gb|------------3---3--3-3------------------------|-------------3---3--3-3--------------------------|
Db|-0---0--0-0-3---3--3-3-3---3--3-3---5---5-5-5-|--0---0--0-0-3---3--3-3-3---3--3-3---5---5--5-5--|
Ab|-0---0--0-0-1---1--1-1-3---3--3-3---5---5-5-5-|--0---0--0-0-1---1--1-1-3---3--3-3---5---5--5-5--|
Db|-0---0--0-0------------3---3--3-3---5---5-5-5-|--0---0--0-0------------3---3--3-3---5---5--5-5--|

Eb|---------------------------------------|------------------------------------|
Bb|---------------------------------------|------------------------------------|
Gb|-3---3--3-3----------------------------|------------------------------------|
Db|-3---3--3-3-0---0--0-0---3---3-3-3---7-|--7--7-7-8-8-8-8-8-8-8-8-7-7-7-7-7--|
Ab|-1---1--1-1-0---0--0-0---3---3-3-3---7-|--7--7-7-8-8-8-8-8-8-8-8-7-7-7-7-7--|
Db|------------0---0--0-0---3---3-3-3---7-|--7--7-7-8-8-8-8-8-8-8-8-7-7-7-7-7--|

[Pre-Verse](1:15 - 1:26)

[Guitar 1](Electric) Plays Riff 1b  x1

[Riff 1b]
Eb|-------------------------------|-------------------------------|---------------------------------|
Bb|-------------------------------|-------------------------------|---------------------------------|
Gb|-------------------------------|-------------------------------|---------------------------------|
Db|-----------------------------1-|-----------------------------1-|-----------------------------1---|
Ab|---3-5---6-5-3-5---3-5---6-5-1-|---3-5---6-5-3-5---3-5---6-5-1-|---3-5---6-5-3-5---3-5---6-5-1---|
Db|-0-----0---------0-----0-----1-|-0-----0---------0-----0-----1-|-0-----0---------0-----0-----1---|

Eb|--------------------------------|
Bb|--------------------------------|
Gb|--------------------------------|
Db|-----------------------------1--|
Ab|---3-5---6-5-3-5---3-5---6-5-1--|
Db|-0-----0---------0-----0-----1--|

[Verse 2](1:27 - 1:53)
[Guitar 1](Electric) (Riff 1c  x1)
[Riff 1c]
Eb|-------------------------------|-------------------------------|---------------------------------|
Bb|-------------------------------|-------------------------------|---------------------------------|
Gb|-------------------------------|-------------------------------|---------------------------------|
Db|-----------------------------1-|-----------------------------1-|-----------------------------1---|
Ab|---3-5---6-5-3-5---3-5---6-5-1-|---3-5---6-5-3-5---3-5---6-5-1-|---3-5---6-5-3-5---3-5---6-5-1---|
Db|-0-----0---------0-----0-----1-|-0-----0---------0-----0-----1-|-0-----0---------0-----0-----1---|
  pm. . . . . . . . . . . . . . .   . . . . . . . . . . . . . . .   . . . . . . . . . . . . . . . 

Eb|-------------------------------|-------------------------------|---------------------------------|
Bb|-------------------------------|-------------------------------|---------------------------------|
Gb|-------------------------------|-------------------------------|---------------------------------|
Db|-----------------------------1-|-----------------------------1-|-----------------------------1---|
Ab|---3-5---6-5-3-5---3-5---6-5-1-|---3-5---6-5-3-5---3-5---6-5-1-|---3-5---6-5-3-5---3-5---6-5-1---|
Db|-0-----0---------0-----0-----1-|-0-----0---------0-----0-----1-|-0-----0---------0-----0-----1---|
  pm. . . . . . . . . . . . . . .   . . . . . . . . . . . . . . .   . . . . . . . . . . . . . . .

Eb|-------------------------------|--------------------------------------------|
Bb|-------------------------------|--------------------------------------------|
Gb|-------------------------------|--------------------------------------------|
Db|-----------------------------1-|-----------------------------1-1-1-1-1-1----|
Ab|---3-5---6-5-3-5---3-5---6-5-1-|---3-5---6-5-3-5---3-5---6-5-1-1-1-1-1-1----|
Db|-0-----0---------0-----0-----1-|-0-----0---------0-----0-----1-1-1-1-1-1----|
  pm. . . . . . . . . . . . . . .   . . . . . . . . . . . . . . . .   .   .

[Chorus 2](1:54 - 2:17)
[Guitar 1](Electric) (Riff 2  x1)
[Riff 2]            
Eb|----------------------------------------------|-------------------------------------------------|
Bb|----------------------------------------------|-------------------------------------------------|
Gb|------------3---3--3-3------------------------|-------------3---3--3-3--------------------------|
Db|-0---0--0-0-3---3--3-3-3---3--3-3---5---5-5-5-|--0---0--0-0-3---3--3-3-3---3--3-3---5---5--5-5--|
Ab|-0---0--0-0-1---1--1-1-3---3--3-3---5---5-5-5-|--0---0--0-0-1---1--1-1-3---3--3-3---5---5--5-5--|
Db|-0---0--0-0------------3---3--3-3---5---5-5-5-|--0---0--0-0------------3---3--3-3---5---5--5-5--|

Eb|---------------------------------------|------------------------------------|
Bb|---------------------------------------|------------------------------------|
Gb|-3---3--3-3----------------------------|------------------------------------|
Db|-3---3--3-3-0---0--0-0---3---3-3-3---7-|--7--7-7-8-8-8-8-8-8-8-8-7-7-7-7-7--|
Ab|-1---1--1-1-0---0--0-0---3---3-3-3---7-|--7--7-7-8-8-8-8-8-8-8-8-7-7-7-7-7--|
Db|------------0---0--0-0---3---3-3-3---7-|--7--7-7-8-8-8-8-8-8-8-8-7-7-7-7-7--|

[Post Chorus](2:18 - 2:30)
[Guitar 1](Electric) Plays Riff 1b  x1
Eb|-------------------------------|-------------------------------|---------------------------------|
Bb|-------------------------------|-------------------------------|---------------------------------|
Gb|-------------------------------|-------------------------------|---------------------------------|
Db|-----------------------------1-|-----------------------------1-|-----------------------------1---|
Ab|---3-5---6-5-3-5---3-5---6-5-1-|---3-5---6-5-3-5---3-5---6-5-1-|---3-5---6-5-3-5---3-5---6-5-1---|
Db|-0-----0---------0-----0-----1-|-0-----0---------0-----0-----1-|-0-----0---------0-----0-----1---|

Eb|--------------------------------|
Bb|--------------------------------|
Gb|--------------------------------|
Db|-----------------------------1--|
Ab|---3-5---6-5-3-5---3-5---6-5-1--|
Db|-0-----0---------0-----0-----1--|

[Bridge](2:30 - 2:44)
[Guitar 1](Electric) Plays Riff 3  x1
[Riff 3]
Eb|------------------------|-------------------------|-----------------------------------------------|
Bb|------------------------|-------------------------|-----------------------------------------------|
Gb|------------------------|-------------------------|-----------------------------------------------|
Db|-0-----0-----0-----0----|-0-----0-----0-----0-----|-0--x-x--0---x-x--0---x-x--0---x-x--0---x-x--0-|
Ab|-0-----0-----0-----0----|-0-----0-----0-----0-----|-0--x-x--0---x-x--0---x-x--0---x-x--0---x-x--0-|
Db|-0-*6--0-*6--0-*6--0-*6-|-0-*6--0-*6--0-*6--0-*6/-|-0-*6-x--0--*6-x--0--*6-x--0--*6-x--0--*6-x--0-|
                                                      pm. .      . .      . .      . .      . .
Eb|-------------------------|
Bb|-------------------------|
Gb|-------------------------|
Db|--x-x--0---x-x--0---x-x--|
Ab|--x-x--0---x-x--0---x-x--|
Db|-*6-x--0--*6-x--0--*6-x--|
   pm. .      . .      . .   

[*See Note At End of Tab]

[Chorus 3](2:45 - 3:08)
[Guitar 1](Electric) Plays Riff 2a x1
[Riff 2a]            
Eb|-------------------|---------------------------|-------------------|------------------------------|
Bb|-------------------|---------------------------|-------------------|------------------------------|
Gb|------3------------|-------3-------------------|-3-----------------|------------------------------|
Db|-0----3----3----5--|--0----3----3----5-x-x-x-x-|-3----0----3----7--|--8-8-8-8-8-8-8-8-7-7-7-------|
Ab|-0----1----3----5--|--0----1----3----5-x-x-x-x-|-1----0----3----7--|--8-8-8-8-8-8-8-8-7-7-7-------|
Db|-0---------3----5--|--0---------3----5-x-x-x-x-|------0----3----7--|--8-8-8-8-8-8-8-8-7-7-7-------|

[Outro](3:09 - 3:26)
[Guitar 1](Electric) Plays Riff 1d  x1
[Riff 1d]
Eb|-------------------------------|-------------------------------|---------------------------------|
Bb|-------------------------------|-------------------------------|---------------------------------|
Gb|-------------------------------|-------------------------------|---------------------------------|
Db|-----------------------------1-|-----------------------------1-|-----------------------------1---|
Ab|---3-5---6-5-3-5---3-5---6-5-1-|---3-5---6-5-3-5---3-5---6-5-1-|---3-5---6-5-3-5---3-5---6-5-1---|
Db|-0-----0---------0-----0-----1-|-0-----0---------0-----0-----1-|-0-----0---------0-----0-----1---|

Eb|-------------------------------|--------------------------------|-------------------|
Bb|-------------------------------|--------------------------------|-------------------|
Gb|-------------------------------|--------------------------------|--------------------|
Db|-----------------------------1-|-----------------0--x-x--0--x-x-|-----------------0--|
Ab|---3-5---6-5-3-5---3-5---6-5-1-|---3-5---6-5-3-5-0--x-x--0--x-x-|---3-5---6-5-3-5-0--|
Db|-0-----0---------0-----0-----1-|-0-----0---------0-*6-x--0-*6-x-|-0-----0---------0--|
                                                
(For a fuller sound you can play Riff 1 this way:)
[Riff 1 alternate]
Eb|-------------------------------|-------------------------------|---------------------------------|
Bb|-------------------------------|-------------------------------|---------------------------------|
Gb|-------------------------------|-------------------------------|---------------------------------|
Db|-----------------------------1-|-----------------------------1-|-----------------------------1---|
Ab|---3-5---6-5-3-5---3-5---6-5-1-|---3-5---6-5-3-5---3-5---6-5-1-|---3-5---6-5-3-5---3-5---6-5-1---|
Db|-0-----0---------0-----0-----1-|-0-----0---------0-----0-----1-|-0-----0---------0-----0-----1---|

Eb|-------------------------------|-------------------------------|---------------------------------|
Bb|-------------------------------|-------------------------------|---------------------------------|
Gb|-------------------------------|---5-7---8-7-5-7---5-7---8-7---|---5-7---8-7-5-7---5-7---8-7-----|
Db|-----------------------------1-|---x-x---x-x-x-x---x-x---x-x-1-|---x-x---x-x-x-x---x-x---x-x-1---|
Ab|---3-5---6-5-3-5---3-5---6-5-1-|---3-5---6-5-3-5---3-5---6-5-1-|---3-5---6-5-3-5---3-5---6-5-1---|
Db|-0-----0---------0-----0-----1-|-0-----0---------0-----0-----1-|-0-----0---------0-----0-----1---|

Eb|-------------------------------|--------------------------------|
Bb|-------------------------------|--------------------------------|
Gb|---5-7---8-7-5-7---5-7---8-7---|---5-7---8-7-5-7---5-7---8-7----|
Db|---x-x---x-x-x-x---x-x---x-x-1-|---x-x---x-x-x-x---x-x---x-x-1--|
Ab|---3-5---6-5-3-5---3-5---6-5-1-|---3-5---6-5-3-5---3-5---6-5-1--|
Db|-0-----0---------0-----0-----1-|-0-----0---------0-----0-----1--|

(For a thicker sound you can play Riff 3 this way:)
[Riff 3 alternate]
Eb|------------------------|-------------------------|-----------------------------------------------|
Bb|------------------------|-------------------------|-----------------------------------------------|
Gb|------------------------|-------------------------|-----------------------------------------------|
Db|-0-----0-----0-----0----|-0-----0-----0-----0-----|-0--0-0--0---0-0--0---0-0--0---0-0--0---0-0--0-|
Ab|-0-----0-----0-----0----|-0-----0-----0-----0-----|-0--0-0--0---0-0--0---0-0--0---0-0--0---0-0--0-|
Db|-0-*6--0-*6--0-*6--0-*6-|-0-*6--0-*6--0-*6--0-*6/-|-0-*6-0--0--*6-0--0--*6-0--0--*6-0--0--*6-0--0-|
                                                      pm. .      . .      . .      . .      . .

Eb|-------------------------|
Bb|-------------------------|
Gb|-------------------------|
Db|--0-0--0---0-0--0---x-x--|
Ab|--0-0--0---0-0--0---x-x--|
Db|-*6-0--0--*6-0--0--*6-x--|
   pm. .      . .      . .   

(Also, the harmonic note is a B, which is the same as the note at the 13th fret of the B string when
it's tuned down to Bb. If you're having trouble hitting the harmonic on the 6th fret of the Low E
(tuned down to Db) then you can always fret the note instead--it just sounds better and makes for
smoother playing when you gently touch the 6th fret while you mute the other strings for that
section.)

************************************

| b  Bend
| .  Staccato
| x  Dead note
| /  Slide up
| *  Natural harmonic

************************************
Suggest correction
Creating personal tab
Creating personal tab
You can edit any tab online and save it as your Personal.

You can edit, replace or remove any tab part or add personal notes – all changes will be seen only by you.

Personal tabs can be accessed anytime from any device, even offline.
Learn more »
Give kudos to tab author, rate the tab!
1 2 3 4 5
comments
print report bad tab
3 comments total.
+1 reply
pnamota 12 Mar 03, 2017 01:51 PM

Nice! Glad someone tabbed from this band. Would love to see a few more tabs of them in here.

guest
You may want to rate the tab now too:
select rating
Wanna post a correction for this tab? Suggest correction