Oops, an error
Loading. Please wait.

30 Days Tab

version 1
version 1

Whole song

Interactive

71,248 views 1 this week
6 commentsread comments
1 2 3 4 5
excellent!
x 14
add to favorites
launch autoscroll
font size
0
reset
how to read this tab
guitar tuner
Tab Pro tools
  • play this tab
  • loop segment
  • change instrument
  • show fretboard
  • metronome
×
Best way to learn
"30 Days"
Autoscroll
slow
fast
+/-
esc
set tempo
stop
Contributor
Capo
7th fret
-------------------------------------------------------------------------------
                             30days - Nevershoutnever!
-------------------------------------------------------------------------------
Tabbed by: Katelyn McMillan
AIM: sowrongitskmac
Here's a video of my cover: http://www.youtube.com/watch?v=US1fW73Twy8
myspace: www.myspace.com/37586697
band:  www.myspace.com/dragonslayerwv

I'm pretty sure this is correct, but I'm not so sure about the last two chords.  
If someone knows them, let me know. =]

Tuning: Standard
CAPO ON 7


1ST VERSE

e|--2------2--------2-----2--------0--------0---------0------0---------------|
B|----3------3----3---3-----3---3-----3-------3----3-----3-----3---3---------|
G|------2-------2-------2-----2----------------------------------------------|
D|---------------------------------------2------2----------2-----2-----------|
A|---------------------------------------------------------------------------|
E|---------------------------------------------------------------------------|

e|--0-----0-------0-----0--------0-----0--------0------0---------------------|
B|----3-----3---3---3-----3---3----3-----3----3---3------3-------------------|
G|---------------------------------------------------------------------------|
D|---------------------------------------------------------------------------|
A|------2-----2-------2-----2------------------------------------------------|
E|-----------------------------------3-----3---------3-----3-----------------|

e|--2------2--------2-----2--------0--------0---------0------0---------------|
B|----3------3----3---3-----3---3-----3-------3----3-----3-----3---3---------|
G|------2-------2-------2-----2----------------------------------------------|
D|---------------------------------------2------2----------2-----2-----------|
A|---------------------------------------------------------------------------|
E|---------------------------------------------------------------------------|

e|--0-----0-------0-----0--------0-----0--------0------0---------------------|
B|----3-----3---3---3-----3---3----3-----3----3---3------3-------------------|
G|---------------------------------------------------------------------------|
D|---------------------------------------------------------------------------|
A|------2-----2-------2-----2------------------------------------------------|
E|-----------------------------------3-----3---------3-----3-----------------|

e|--0-----0-------0-----0-------0--------------------------------------------|
B|----3-----3---3---3-----3-----3--------------------------------------------|
G|------------------------------2--------------------------------------------|
D|------2-----2-------2-----2---2--------------------------------------------|
A|------------------------------0--------------------------------------------|
E|------------------------------0--------------------------------------------|

1ST CHORUS

e|--2------2--------2-----2--------0--------0---------0------0---------------|
B|----3------3----3---3-----3---3-----3-------3----3-----3-----3---3---------|
G|------2-------2-------2-----2----------------------------------------------|
D|---------------------------------------2------2----------2-----2-----------|
A|---------------------------------------------------------------------------|
E|---------------------------------------------------------------------------|

e|--0-----0-------0-----0--------0-----0--------0------0---------------------|
B|----3-----3---3---3-----3---3----3-----3----3---3------3---3---------------|
G|---------------------------------------------------------------------------|
D|---------------------------------------------------2-----2-----------------|
A|------2-----2-------2-----2------------------------------------------------|
E|-----------------------------------3-----3---------------------------------|


e|--2------2--------2-----2--------0--------0---------0------0---------------|
B|----3------3----3---3-----3---3-----3-------3----3-----3-----3---3---------|
G|------2-------2-------2-----2----------------------------------------------|
D|---------------------------------------2------2----------2-----2-----------|
A|---------------------------------------------------------------------------|
E|---------------------------------------------------------------------------|

e|--0-----0-------0-----0--------0-----0--------------0----------------------|
B|----3-----3---3---3-----3---3----3-----3----3-------3----------------------|
G|----------------------------------------------------2----------------------|
D|----------------------------------------------------2----------------------|
A|------2-----2-------2-----2-------------------------0----------------------|
E|-----------------------------------3-----3----------0----------------------|


e|--2222222222222222----0000000000000000----0000000000000000----0------------|
B|--3333333333333333----3333333333333333----3333333333333333----3------------|
G|--2222222222222222----2222222222222222----0000000000000000----0------------|
D|--0000000000000000----2222222222222222----2222222222222222----0------------|
A|--0000000000000000----0000000000000000----2222222222222222----2------------|
E|------------------------------------------0000000000000000----3------------|

2ND VERSE

e|--2------2--------2-----2--------0--------0---------0------0---------------|
B|----3------3----3---3-----3---3-----3-------3----3-----3-----3---3---------|
G|------2-------2-------2-----2----------------------------------------------|
D|---------------------------------------2------2----------2-----2-----------|
A|---------------------------------------------------------------------------|
E|---------------------------------------------------------------------------|

e|--0-----0-------0-----0--------0-----0--------0-----0------0---------------|
B|----3-----3---3---3-----3---3----3-----3----3---3-----3----3--------------|
G|-----------------------------------------------------------2---------------|
D|-----------------------------------------------------------2---------------|
A|------2-----2-------2-----2--------------------------------0---------------|
E|-----------------------------------3-----3--------3-----3--0---------------|

2ND CHORUS

e|--2222222222222222----0000000000000000----0000000000000000----00000000-----|
B|--3333333333333333----3333333333333333----3333333333333333----33333333-----|
G|--2222222222222222----2222222222222222----0000000000000000----00000000-----|
D|--0000000000000000----2222222222222222----2222222222222222----00000000-----|
A|--0000000000000000----0000000000000000----2222222222222222----22222222-----|
E|------------------------------------------0000000000000000----33333333-----|


e|--00000000-----------------------------------------------------------------|
B|--33333333-----------------------------------------------------------------|
G|--22222222-----------------------------------------------------------------|
D|--22222222-----------------------------------------------------------------|
A|--00000000-----------------------------------------------------------------|
E|---------------------------------------------------------------------------|

e|--2222222222222222----0000000000000000----0000000000000000----0----0-------|
B|--3333333333333333----3333333333333333----3333333333333333----3----3-------|
G|--2222222222222222----2222222222222222----0000000000000000----0----2-------|
D|--0000000000000000----2222222222222222----2222222222222222----0----2-------|
A|--0000000000000000----0000000000000000----2222222222222222----2----0-------|
E|------------------------------------------0000000000000000----3------------|

BRIDGE

e|--0000000000000000----222222222222222----0000000000000000-----------------|
B|--3333333333333333----333333333333333----3333333333333333------------------|
G|--0000000000000000----222222222222222----0000000000000000------------------|
D|--0000000000000000----000000000000000----2222222222222222------------------|
A|--2222222222222222----000000000000000----2222222222222222------------------|
E|--3333333333333333-----------------------0000000000000000------------------|

e|--0000000000000000---------------------------------------------------------|
B|--3333333333333333---------------------------------------------------------|
G|--2222222222222222---------------------------------------------------------|
D|--2222222222222222---------------------------------------------------------|
A|--0000000000000000---------------------------------------------------------|
E|---------------------------------------------------------------------------|

e|--0000000000000000----222222222222222----0000000000000000-----------------|
B|--3333333333333333----333333333333333----3333333333333333------------------|
G|--0000000000000000----222222222222222----0000000000000000------------------|
D|--0000000000000000----000000000000000----2222222222222222------------------|
A|--2222222222222222----000000000000000----2222222222222222------------------|
E|--3333333333333333-----------------------0000000000000000------------------|

e|--0----3----2-------------------------------------------------------------|
B|--3----3----3--------------------------------------------------------------|
G|--2----2----2--------------------------------------------------------------|
D|--2----0----0--------------------------------------------------------------|
A|--0----0----0--------------------------------------------------------------|
E|---------------------------------------------------------------------------|

END


| /  slide up
| \  slide down
| h  hammer-on
| p  pull-off
| ~  vibrato
| +  harmonic
| x  Mute note
===============================================================================
comments
print report bad tab
6 comments total. Showing first comments.
+1 reply
Char<3Brendon wrote on April 18 2009, 06:31 pm

i think the last 3 chords should be like this:
e|--0----0----2-------------------------------------------------------------|
B|--3----3----3--------------------------------------------------------------|
G|--0----2----2--------------------------------------------------------------|
D|--2----2----0--------------------------------------------------------------|
A|--2----0----0--------------------------------------------------------------|
E|---------------------------------------------------------------------------|

0 reply
carulezd00d wrote on June 23 2009, 11:24 pm

i think it might be like this on the last chord

it not a big chenge but that's how i play it =]

0 reply
carulezd00d wrote on June 23 2009, 11:26 pm

e 0

I want to post or [tab]
guest
You may want to rate the tab now too:
select rating
Please do not post tabs as comments. Select "correction" instead!