Oops, an error
Loading. Please wait.

Bigcitydreams Tab

version 1
version 1

Whole song

39,055 views 6 this week
1 commentread comment
1 2 3 4 5
accurate
x 5
add to favorites
launch autoscroll
font size
0
reset
how to read this tab
guitar tuner
Tab Pro tools
  • play this tab
  • loop segment
  • change instrument
  • show fretboard
  • metronome
×
Best way to learn
"Bigcitydreams"
Autoscroll
slow
fast
+/-
esc
set tempo
stop
Contributor
Difficulty
Zachtherunner already put up a good tab for this song but he didn't tab 
the bridge/solo so i thought i would :]

e|-----------------------------------------------------------------|
B|----------1--0----3--1--5b--3--1--0---0h1p0---3--3--5--6--6/8----|
G|------0h1--------------------------------------------------------|
D|--2h3------------------------------------------------------------|
A|-----------------------------------------------------------------|
E|-----------------------------------------------------------------|


at the end of it you can move up to the e string but i think it sound nicer
on the B string... but thats just me. 

there you go :]
comments
print report bad tab
1 comment total.
-1 reply
cylewithac3333 wrote on September 17 2008, 08:43 pm

the 2nd hammer on (4th note) is supposed to be onto the 2nd fret so it would go

-------------
----------1-0
------0h2---- etc...
-2h3---------
-------------
----------

I want to post or [tab]
guest
You may want to rate the tab now too:
select rating
Please do not post tabs as comments. Select "correction" instead!