Oops, an error
Loading. Please wait.

Cant Stand It Tab

version 2
version 2

Solo

Whole song

19,993 views 12 this week
2 commentsread comments
1 2 3 4 5
excellent!
x 6
add to favorites
launch autoscroll
font size
0
reset
how to read this tab
guitar tuner
Tab Pro tools
  • play this tab
  • loop segment
  • change instrument
  • show fretboard
  • metronome
Autoscroll
slow
fast
+/-
esc
set tempo
stop
Contributor
Difficulty
intermediate
e|-------------------------------------------------------------------------|
B|---8-8---8-8-8------------------------------------------7---8---7-8------|
G|---9-7---9-9-7-------9-9-7----------------------------8---8--------------|
D|---------------------------10-9-7-9-10-10-9-9-------9--------------------|
A|-------------------------------------------------------------------------|
E|-------------------------------------------------------------------------|

e|--7-10-7-----------------------------------------------------------------|
B|-----------10-8-7--------------------------------------------------------|
G|--------------------9-7--------------------------------------------------|
D|------------------------10----9-10-9----7-9-7----------------------------|
A|----------------------------------------------10-------------------------|
E|-------------------------------------------------------------------------|
comments
print report bad tab
2 comments total.
0 reply
ryanjwarp wrote on June 22 2013, 12:54 am

Absolutely Perfect, thank you!

0 reply
ReverseConverse wrote on June 24 2015, 07:23 am

I think this part is wrong:

e|-------------------------|
B|--------7---8---7-8------|
G|------8---8--------------|
D|----9--------------------|
A|-------------------------|
E|-------------------------|

It should be like this:

e|-------------------------|
B|----------7---7-8---7-8--|
G|----5/s/7---7------------|
D|-------------------------|
A|-------------------------|
E|-------------------------|

By the way your solo is quite accurate, good job on that :)

P.S. the: 5/s/7 is a slide from fret 5 to 7

I want to post or [tab]
guest
You may want to rate the tab now too:
select rating
Please do not post tabs as comments. Select "correction" instead!