Oops, an error
Loading. Please wait.

Did It Hurt ukulele

version 1
version 1

Whole song

1,045 views 9 this week
no commentswrite comment
1 2 3 4 5
x 5
add to favorites
×
Save as Personal and add changes to this tab that will be seen only by you. Learn more ›
×
You can save this tab as Personal to edit and correct it or add notes. All changes will be seen only by you. Learn more »
launch autoscroll
font size
0
reset
transpose
0
reset
display chords
guitar tuner
edit
Autoscroll
slow
fast
+/-
esc
set tempo
stop
Author
Difficulty
Strumming
There is no strumming pattern for this song yet. and get +5 IQ
-------------------------------------------------------------------------------
                             Did it Hurt? - Nevershoutnever
-------------------------------------------------------------------------------
Hello UG! This is a very simple song and very fun to play. I've did this by ear
so I have tabbed it the way I think is most accurate. I recommend that you 
listen to the song for the strumming pattern. Thanks and enjoy!

Tabbed by: Jagven21
E-mail: Jagven21@hotmail.com

Tuning: Standard
Intro:
A|--2-2-2-2-2-2---3-3-3-3-3-3----------|
E|--3-3-3-3-3-3---3-3-3-3-3-3--x2------|
C|--2-2-2-2-2-2---3-3-3-3-3-3----------|
G|--0-0-0-0-0-0---0-0-0-0-0-0----------|
1st/2nd Verse:
A|--2-2-2-2-2-2---3-3-3-3-3-3-------2------3------5--------------------------|
E|--3-3-3-3-3-3---3-3-3-3-3-3--x3---3------3------7--------------------------|
C|--2-2-2-2-2-2---3-3-3-3-3-3-------2------3------5--------------------------|
G|--0-0-0-0-0-0---0-0-0-0-0-0-------0------0------0--------------------------|
Chorus:
A|--10-10-10-10-10-10---9--9--9--9--9--9---7-7-7-7-7-7---5-5-5-5-5-5---------|
E|--12-12-12-12-12-12---10-10-10-10-10-10--8-8-8-8-8-8---7-7-7-7-7-7--x2-----|
C|--10-10-10-10-10-10---9--9--9--9--9--9---7-7-7-7-7-7---5-5-5-5-5-5---------|
G|---------------------------------------------------------------------------|

A|--10-10-10-10-10-10---9--9--9--9--9--9---7-7-7-7-7-7---5--4--3-------------|
E|--12-12-12-12-12-12---10-10-10-10-10-10--8-8-8-8-8-8---6--5--4-------------|
C|--10-10-10-10-10-10---9--9--9--9--9--9---7-7-7-7-7-7---5--4--3-------------|
G|---------------------------------------------------------------------------|
Up to here you would just repeat the whole song until you get to the outro.

Outro:
A|--2-2-x--2-2-2-x--2-2-2-x--2-2-2-x---2-3-3-x--3-3-3-x--5-5--3-3-3-x--------|
E|--3-3-x--3-3-3-x--3-3-3-x--3-3-3-x---3-3-3-x--3-3-3-x--5-5--3-3-3-x--x2----|
C|--2-2-x--2-2-2-x--2-2-2-x--2-2-2-x---2-3-3-x--3-3-3-x--5-5--3-3-3-x--------|
G|--0-0-x--0-0-0-x--0-0-0-x--0-0-0-x---0-0-0-x--0-0-0-x-------0-0-0-x--------|

A|--2-2-2--x--x--x--x---2-2--------------------------------------------------|
E|--3-3-3--x--x--x--x---3-3--------------------------------------------------|
C|--2-2-2--x--x--x--x---2-2--------------------------------------------------|
G|--0-0-0--x--x--x--x---0-0--------------------------------------------------|

            
            
Suggest correction
Creating personal tab
Creating personal tab
You can edit any tab online and save it as your Personal.

You can edit, replace or remove any tab part or add personal notes – all changes will be seen only by you.

Personal tabs can be accessed anytime from any device, even offline.
Learn more »
comments
print report bad tab
guest
You may want to rate the tab now too:
select rating
Wanna post a correction for this tab? Suggest correction