Oops, an error
Loading. Please wait.

Happy Bass Tab

version 1
version 1

Whole song

Interactive

2,001 views 3 this week
2 commentsread comments
1 2 3 4 5
accurate
x 3
add to favorites
launch autoscroll
font size
0
reset
guitar tuner
Tab Pro tools
  • play this tab
  • loop segment
  • change instrument
  • show fretboard
  • metronome
×
Best way to learn
"Happy"
Autoscroll
slow
fast
+/-
esc
set tempo
stop
Contributor
Difficulty
Tab by 6METAL6BASSIST6

Email: Petergriffinav@gmail.com

Bass comes in at 1:04


||------------------------------------------------------------|
||----------------------------5-3-3--3-3-3--3-3-3--3/7--5-3---|
||3-3--3-3-3--3-3-3--3--3-5-7--------------------------------5|
||------------------------------------------------------------|

||-----------------------------------------------|
||----------------------------5-3-3--3-3-3--3-3/5|
||3-3--3-3-3--3-3-3--3--3-5-7--------------------|
||-----------------------------------------------|

||------------------------------------------|
||------------------------------------------| x2
||3-3--------------3-3--3-3-3--------------3|
||-----3-3--3-1-1--------------3-3--3-1-1---|

||-----------------------------------------------------------------------------------|
||----------------2-2-2-2-2-2-2-2-----------------2-2-2-2-3-3-5-5-7-7-9-9-10-10-12-12|
||3-3-3-3-3-3-3-3-----------------3-3-3-3-3-3-3-3------------------------------------|
||-----------------------------------------------------------------------------------|

||---------------------------------------------------------|
||---------3--------5-------------3----5----8----3------3/5|
||3--------------------------3-----------------------------|
||---------------------------------------------------------|

||------------------------------------------|
||------------------------------------------|
||3-3--------------3-3--3-3-3--------------3|
||-----3-3--3-1-1--------------3-3--3-1-1---|

||-----------------------------------------------|
||-----------------------------------------------|
||3-3--------------3-3--3-3-3--------------3----3|
||-----3-3--3-1-1--------------3-3--3-1-1--------|



comments
We did not receive enough feedback on this tab! Please rate:
print report bad tab
1 2 3 4 5
2 comments total.
+1 reply
whitechapel1012 wrote on September 9 2012, 07:10 pm

This is a great tab!

0 reply
6METAL6BASSIST6 wrote on September 12 2012, 02:26 am

Thank you. I usually do metal songs though haha.

I want to post or [tab]
guest
You may want to rate the tab now too:
select rating
Please do not post tabs as comments. Select "correction" instead!