Oops, an error
Loading. Please wait.

Heregoesnothin Tab

version 1
version 1

Whole song

Interactive

65,101 views 18 this week
3 commentsread comments
1 2 3 4 5
excellent!
x 9
add to favorites
launch autoscroll
font size
0
reset
how to read this tab
guitar tuner
Tab Pro tools
  • play this tab
  • loop segment
  • change instrument
  • show fretboard
  • metronome
×
Best way to learn
"Heregoesnothin"
Autoscroll
slow
fast
+/-
esc
set tempo
stop
Contributor
----------------------------------------------------------------------------
                             HEREGOESNOTHIN - Nevershoutnever!
----------------------------------------------------------------------------
Tabbed by: Cylewithac3333

Tuning:1/2 step down


The chords for this song are all VERY simple and very similar... i'm pretty
sure this is... if not the right way... then just a very easy and nice
sounding way to play it. but i'm pretty sure its 100% right :]

btw, i know there's another version already made, and that one works pretty
well too but i just think this ways easier :/ you should play which ever
one fits your style :]


There are only 4 chords in the song:


(not the right names i know :P)
       A       C#      B       E
e|-----0-------0-------0-------0----|
B|-----0-------0-------0-------0----|
G|-----9-------9-------9-------9----|
D|-----9-------9-------9-------9----|
A|-----0-------x-------x-------7----|
E|-----x-------9-------7-------0----|


Intro/verse: if timings everything...

e|-----0-------0-------0------------|
B|-----0-------0-------0------------|
G|-----9-------9-------9------------|   x3
D|-----9-------9-------9------------|
A|-----0-------x-------x------------|
E|-----x-------9-------7------------|


Pre-Chorus: i'll sit back and i'll...

e|-----0-------0-------0-------0----|
B|-----0-------0-------0-------0----|
G|-----9-------9-------9-------9----|   x2
D|-----9-------9-------9-------9----|
A|-----0-------x-------x-------x----|
E|-----x-------7-------9-------7----|


Chorus: Yeah my eyes they don't see...

e|-----0-------0-------0-------0----|
B|-----0-------0-------0-------0----|
G|-----9-------9-------9-------9----|   x2
D|-----9-------9-------9-------9----|
A|-----x-------0-------7-------x----|
E|-----9-------x-------0-------7----|


Interlude:

e|-----0---0---0--------0---0-0-0---|
B|-----0---0---0--------0---0-0-0---|
G|-----9---9---9--------9---9-9-9---|   x2
D|-----9---9---9--------9---9-9-9---|
A|-----0---0---0--------0---0-x-x---|
E|-----x---x---x--------x---x-7-9---|


Verse 2: Steady breathin...

(same as first verse)

Pre-Chorus + Chorus: (Same)


Bridge: was the night everybody...

e|-----0-------0-------0-------0----|
B|-----0-------0-------0-------0----|
G|-----9-------9-------9-------9----|   x3
D|-----9-------9-------9-------9----|
A|-----0-------x-------x-------x----|
E|-----x-------7-------9-------7----|


Outro: (Chorus)

end on A

Thats it!!!! :) i hope it works for you
comments
print report bad tab
3 comments total.
0 reply
flyin wrote on August 26 2009, 05:44 pm

perfect

0 reply
TringlSG wrote on October 11 2009, 02:09 pm

This is really good.
His songs are simple,
but still
Good job. [:

0 reply
Chaz_Star123 wrote on October 28 2009, 06:19 am

Any chance of strumming patterns?

I want to post or [tab]
guest
You may want to rate the tab now too:
select rating
Please do not post tabs as comments. Select "correction" instead!