Oops, an error
Loading. Please wait.

I Just Laugh Tab

version 3
version 3

Whole song

1,624 views 1 this week
no commentswrite comment
1 2 3 4 5
please rate
add to favorites
launch autoscroll
font size
0
reset
how to read this tab
guitar tuner
Tab Pro tools
  • play this tab
  • loop segment
  • change instrument
  • show fretboard
  • metronome
×
Best way to learn
"I Just Laugh"
Autoscroll
slow
fast
+/-
esc
set tempo
stop
Contributor
simple enough. it has 2 guitars both standard one acoustic and one elctric
live chris plays the acoustic 1 round longer but im going off the recorded version

lead intro play twice
e|-----------------------------------------------------|
B|-----------------------------------------------------|
G|-----------------------------------------------------|
D|--------------2--------------2----------4b-2-4-2-4-2-|
A|-0-0--0--0h2h4--0-0--0--0h2h4--0-0--0--0-------------|
E|-----------------------------------------------------|

acoustic intro/verse (twice for the intro twice for the verse)
e|---------------------------------------2--2-2-2-2-2-|
B|---------------------------------------3--3-3-3-3-3-|
G|-2-2--2--2-2-2--2-2--2--2-2-2--2-2--2--2--2-2-2-2-2-|
D|-2-2--2--2-2-2--2-2--2--2-2-2--2-2--2---------------|
A|-0-0--0--0-0-0--0-0--0--0-0-0--0-0--0---------------|
E|----------------------------------------------------|

acoustic pre chorus
e|----------------2~--------|
B|-0~---0~---0~---3~---0~---|
G|-0~---3~---2~---2~---0~---|
D|-2~---4~---2~---0~---2~---|
A|-2~---4~---0~---0~---2~---|
E|-0~---2~-------------0~---|

both guitars chorus pt 1 play 3 times(mayb mute in between)
e|-----------|
B|-----------|
G|-2-22-2222-|
D|-2-22-2220-|
A|-0-00-0000-|
E|-----------|

acoustic chorus part 2(strum quit a few times each)
e|-------------2-|
B|-0---0---0---3-|
G|-2---0---3---2-|
D|-2---2---4---0-|
A|-0---2---4---0-|
E|-----0---2-----|

lead chorus pt 2(strum them quit a few time
e|-0----------0----------0-|
B|-0----------0----------0-|
G|-2----------4----------2-|
D|-2----------4----------2-|
A|-0----0h2h4-2----44-22-0-|
D|-------------------------|

lead post chorus
e|----------------------------|
B|----------------------------|
G|---------------4b-2h4p2-4-2-|
D|--------------2-------------|
A|-0-0--0--0h2h4--------------|
E|----------------------------|

acoustic post chorus
e|---------------|
B|---------------|
G|-2-2--2--2-2-2-|
D|-2-2--2--2-2-2-|
A|-0-0--0--0-0-0-|
E|---------------|

lead verse play twice same as before
e|-----------------------------------------------------|
B|-----------------------------------------------------|
G|-----------------------------------------------------|
D|--------------2--------------2----------4b-2-4-2-4-2-|
A|-0-0--0--0h2h4--0-0--0--0h2h4--0-0--0--0-------------|
E|-----------------------------------------------------|

acoustic verse the same play twice
e|---------------------------------------2--2-2-2-2-2-|
B|---------------------------------------3--3-3-3-3-3-|
G|-2-2--2--2-2-2--2-2--2--2-2-2--2-2--2--2--2-2-2-2-2-|
D|-2-2--2--2-2-2--2-2--2--2-2-2--2-2--2---------------|
A|-0-0--0--0-0-0--0-0--0--0-0-0--0-0--0---------------|
E|----------------------------------------------------|

pre chorus
e|-------------2-|
B|-0---0---0---3-|
G|-2---0---3---2-|
D|-2---2---4---0-|
A|-0---2---4---0-|
E|-----0---2-----|

both guitars chorus pt 1 play 3 times(mayb mute in between)
e|-----------|
B|-----------|
G|-2-22-2222-|
D|-2-22-2220-|
A|-0-00-0000-|
E|-----------|

acoustic chorus part 2(strum quit a few times each)
e|-------------2-|
B|-0---0---0---3-|
G|-2---0---3---2-|
D|-2---2---4---0-|
A|-0---2---4---0-|
E|-----0---2-----|

lead chorus pt 2(strum quit a few times each)
e|-0----------0----0----0-|
B|-0----------0----0----0-|
G|-2----------4----6----7-|
D|-2----------4----6----7-|
A|-0----0h2h4-2----4----5-|
E|------------------------|

then play both guitars like in the first chorus.

lead outro
e|-----------------------|
B|-----------------------|
G|-----------------------|
D|--------------2--------|
A|-0-0--0--0h2h4--0-0--0-|
E|-----------------------|

acoustic outro
e|-----------------------|
B|-----------------------|
G|-2-2--2--2-2-2--2-2--2-|
D|-2-2--2--2-2-2--2-2--2-|
a|-0-0--0--0-0-0--0-0--0-|
E|-----------------------|
comments
We did not receive enough feedback on this tab! Please rate:
print report bad tab
1 2 3 4 5
I want to post or [tab]
guest
You may want to rate the tab now too:
select rating
Please do not post tabs as comments. Select "correction" instead!