Oops, an error
Loading. Please wait.

I Just Laugh Tab

version 4
version 4

Whole song

5,287 views 1 this week
no commentswrite comment
1 2 3 4 5
excellent!
x 4
add to favorites
launch autoscroll
font size
0
reset
how to read this tab
guitar tuner
Tab Pro tools
  • play this tab
  • loop segment
  • change instrument
  • show fretboard
  • metronome
Autoscroll
slow
fast
+/-
esc
set tempo
stop
Contributor
Difficulty
intermediate
I saw a lot of horrible tabs for this song and I learned this by ear. I might not be 
accurate but I'm happy with how I play it.
This song has an acoustic and electric guitar being played, I just tabbed out almost 
Just have fun with it :)


Intro:

e|----------------------------------------------------|
B|----------------------------------------------------|
G|----------------------------------------------------|
D|-------------2-------------2----------4b--4-4-2-4-2-|
A|-0-0--0-0-2h4--0-0--0-0-2h4--0-0--0-0---------------|
E|----------------------------------------------------| x2


First Verse (played acoustic):

*Note - These are the two chords used in that first part. Listen to the song so you can 
the rhythm right of the strumming and when they're played.

e|--0------2-----------|
B|--2------3-----------|
G|--2------2-----------|
D|--2------0-----------|
A|--0------0-----------|
E|--0------------------|

PreChorus (also played acoustic):

Then these are the chords used during the prechorus. Strum each chord once.

e|--0---2---2---0---0--|
B|--0---2---3---2---0--|
G|--1---2---2---2---1--|
D|--2---4---0---2---2--|
A|--2---4---0---0---2--|
E|--0---2-------0---0--|

The Chorus:

NOTE:// You can play the chorus either two ways.

Chorus Ver. 1
e|----------------------------------------------------------------|
B|----------------------------------------------------------------|
G|-7--7-7--7-7-----------7--7-7--7-7-----------7--7-7--7-7--------|
D|-7--7-7--7-7-7---------7--7-7--7-7-7---------7--7-7--7-7-7------|
A|-5--5-5--5-5-7---------5--5-5--5-5-7---------5--5-5--5-5-7------|
E|-------------5---------------------5---------------------5------|

Or like this. (This is how I usually play it myself) Either way is fine.

Chorus Ver. 2
e|----------------------------------------------------------------|
B|----------------------------------------------------------------|
G|-7--7-7--7-7-----------7--7-7--7-7-----------7--7-7--7-7--------|
D|-7--7-7--7-7-7---------7--7-7--7-7-7---------7--7-7--7-7-7------|
A|-5--5-5--5-5-7---------5--5-5--5-5-7---------5--5-5--5-5-7------|
E|-5--5-5--5-5-5---------5--5-5--5-5-5---------5--5-5--5-5-5------|

The Chorus Continued:

e|----------------------------------------------------------------------------|
B|----------------------------------------------------------------------------|
G|------------------------------------------------------------7--7-7--7-7-7---|
D|-7\2--2-2--2-2-2--2-2-2--2-2-2-4--4-4--4-4-4--4-4-4---------7--7-7--7-7-7---|
A|-7\2--2-2--2-2-2--2-2-2--2-2-2-4--4-4--4-4-4--4-4-4---------5--5-5--5-5-5---|
E|---0--0-0--0-0-0--0-0-0--0-0-0-2--2-2--2-2-2--2-2-2-4-4-5-5-5--5-5--5-5-5---|

Intro to the Second verse:

e|-------------------------------|
B|-------------------------------|
G|-------------------------------|
D|--------------7--9/11-9\7-9-7--|
A|----------7h9------------------|
E|-5-5--5-5----------------------|

second Verse (Same *Note as first verse):

e|--0------2-----------|
B|--2------3-----------|
G|--2------2-----------|
D|--2------0-----------|
A|--0------0-----------|
E|--0------------------|

Now with the electric guitar playing along using this

e|----------------------------------------------------|
B|----------------------------------------------------|
G|----------------------------------------------------|
D|-------------2-------------2----------4b--4-4-2-4-2-|
A|-0-0--0-0-2h4--0-0--0-0-2h4--0-0--0-0---------------|
E|----------------------------------------------------|

PreChorus:

Strum each chord once.

e|--0---2---2---0---0--|
B|--0---2---3---2---0--|
G|--1---2---2---2---1--|
D|--2---4---0---2---2--|
A|--2---4---0---0---2--|
E|--0---2-------0---0--|

Chorus:

e|----------------------------------------------------------------|
B|----------------------------------------------------------------|
G|-7--7-7--7-7-----------7--7-7--7-7-----------7--7-7--7-7--------|
D|-7--7-7--7-7-7---------7--7-7--7-7-7---------7--7-7--7-7-7------|
A|-5--5-5--5-5-7---------5--5-5--5-5-7---------5--5-5--5-5-7------|
E|-------------5---------------------5---------------------5------|

                               OR

e|----------------------------------------------------------------|
B|----------------------------------------------------------------|
G|-7--7-7--7-7-----------7--7-7--7-7-----------7--7-7--7-7--------|
D|-7--7-7--7-7-7---------7--7-7--7-7-7---------7--7-7--7-7-7------|
A|-5--5-5--5-5-7---------5--5-5--5-5-7---------5--5-5--5-5-7------|
E|-5--5-5--5-5-5---------5--5-5--5-5-5---------5--5-5--5-5-5------|

Chorus Continued:

e|-----------------------------------------------------------------------------------------|
B|-----------------------------------------------------------------------------------------|
G|-----------------------------------------------------------------------------------------|
D|-7\2--2-2--2-2-2--2-2-2--2-2-2-4--4-4--4-4-4--4-4-4------------9-9--9-9-9--9-9-9--9-9-9--|
A|-7\2--2-2--2-2-2--2-2-2--2-2-2-4--4-4--4-4-4--4-4-4------------9-9--9-9-9--9-9-9--9-9-9--|
E|---0--0-0--0-0-0--0-0-0--0-0-0-2--2-2--2-2-2--2-2-2-4-4-5-5-7--7-7--7-7-7--7-7-7--7-7-7--|

e|----------------------------|
B|----------------------------|
G|-6--6-6--6-6-6--6-6-6--6-6--|
D|-6--6-6--6-6-6--6-6-6--6-6--|
A|-4--4-4--4-4-4--4-4-4--4-4--|
E|----------------------------|

             OR

e|----------------------------|
B|----------------------------|
G|-6--6-6--6-6-6--6-6-6--6-6--|
D|-6--6-6--6-6-6--6-6-6--6-6--|
A|-4--4-4--4-4-4--4-4-4--4-4--|
E|-4--4-4--4-4-4--4-4-4--4-4--|

Second Part of the Chorus leading towards the outro:

Ver. 1
e|----------------------------------------------------------------|
B|----------------------------------------------------------------|
G|-9--9-9--9-9-----------9--9-9--9-9-----------9--9-9--9-9--------|
D|-9--9-9--9-9-9---------9--9-9--9-9-9---------9--9-9--9-9-9------|
A|-7--7-7--7-7-9---------7--7-7--7-7-9---------7--7-7--7-7-9------|
E|-------------7---------------------7---------------------7------|

                 OR (again either way is fine)
Ver. 2
e|----------------------------------------------------------------|
B|----------------------------------------------------------------|
G|-9--9-9--9-9-----------9--9-9--9-9-----------9--9-9--9-9--------|
D|-9--9-9--9-9-9---------9--9-9--9-9-9---------9--9-9--9-9-9------|
A|-7--7-7--7-7-9---------7--7-7--7-7-9---------7--7-7--7-7-9------|
E|-7--7-7--7-7-7---------7--7-7--7-7-7---------7--7-7--7-7-7------|

Continued:

e|---------------------------------------------------------------------------|
B|---------------------------------------------------------------------------|
G|------------------------------------------------------------9--9-9--9-9-9--|
D|-9\4--4-4--4-4-4--4-4-4--4-4-4-6--6-6--6-6-6--6-6-6---------9--9-9--9-9-9--|
A|-9\4--4-4--4-4-4--4-4-4--4-4-4-6--6-6--6-6-6--6-6-6---------7--7-7--7-7-7--|
E|---2--2-2--2-2-2--2-2-2--2-2-2-4--4-4--4-4-4--4-4-4-6-6-7-7-7--7-7--7-7-7--|

Outro:

e|------------------------|
B|------------------------|
G|------------------------|
D|------------------------|
A|------------------------|
E|-7-7--7-7-9h11--7-7--7--|


I'm sure there are other little bits and pieces heard in the background being played on 
electric guitar but I'm just trying to keep this song as fun as possible, it's a fun 
to play!
Hope this helped! You can email me any questions at gvirus1988@yahoo.com or send me a 
on here if it's possible. Lemme know if I made any typos.
comments
print report bad tab
I want to post or [tab]
guest
You may want to rate the tab now too:
select rating
Please do not post tabs as comments. Select "correction" instead!