Oops, an error
Loading. Please wait.

Ladybug Tab

5,302 views 6 this week
1 commentread comment
1 2 3 4 5
excellent!
x 4
add to favorites
launch autoscroll
font size
0
reset
how to read this tab
guitar tuner
Tab Pro tools
  • play this tab
  • loop segment
  • change instrument
  • show fretboard
  • metronome
×
Best way to learn
"Ladybug"
Autoscroll
slow
fast
+/-
esc
set tempo
stop
Contributor
Difficulty
intermediate
Saw there's only one tab of this and it's not entirely right so thought i'd give it go 
:) It's pretty simple once you've got the intro and the chorus down hopefully you can 
work on from there.

x - Mute strings.
> or >>> - Carry on playing.

                       Intro
   E---------------------------------------------------|
   B---------------------------------------------------|
   G---1--1--1--01-1--1--1--01-1--1--1--01-1--1--1--x--|
   D---2--2--2--2--2--2--2--2--2--2--2--2--2--2--2--x--|
   A--0--0--0--0--0--0--0--0--0--0--0--0--0--0--0---x--|
   E---------------------------------------------------|
1 2 3 4...

Hey there lovely lady bug you got another thing coming if you think your

   E----------------------------------------------------------->>>
   B----------------------------------------------------------->>>
   G---1--1--1--01-1--1--1--01-1--1--1--01-1--1--1--1--1--1---->>>
   D---2--2--2--2--2--2--2--2--2--2--2--2--2--2--2--2--2--2---->>>
   A--0--0--0--0--0--0--0--0--0--0--0--0--0--0----------------->>>
   E--------------------------------------------0--0--0--0----->>>

Loved you're just another little toy in his game of lust that boy is cheating on you.

And hey there small town beauty queen that sticky little devil ain't comin clean

>> E-----------------------------------------------------------|
>> B-----------------------------------------------------------|
>> G---1--1--1--01-1--1--1--01-1--1--1--01-1--1--1--1--1--1----|
>> D---2--2--2--2--2--2--2--2--2--2--2--2--2--2--2--2--2--2----|
>> A--0--0--0--0--0--0--0--0--0--0--0--0--0--0-----------------|
>> E--------------------------------------------0--0--0--0-----|

I know that you have just met me but girl you gotta' believe me.


That I can't believe that the girl I saw 2 months ago was right in front of me,

 E------------------------------------------------------------|
 B------------------------------------------------------------|
 G---6--6--1--1--4--4--3--3--2--2--1--1--3--3--3--3-----------|
 D---6--6--2--2--4--4--4--4--2--2--2--2--4--4--4--4-----------|
 A--4--4--0--0--2--2--------0--0------------------------------|
 E--------------------2--2--------0--0--2--2--2--2------------|

you took the chance to take my name

But I couldn't see, just what you thought you saw in me but obviously, it's stuck.

 E-----------------------------------------------------------|
 B-----------------------------------------------------------|
 G---6--6--1--1--4--4--3--3--2--2--1--1--1--1--1--01---------| And so on...
 D---6--6--2--2--4--4--4--4--2--2--2--2--2--2--2--2----------|
 A--4--4--0--0--2--2--------0--0--------0--0--0--0-----------|
 E--------------------2--2--------0--0-----------------------|
comments
print report bad tab
1 comment total.
+1 reply
meltingboy wrote on July 16 2011, 10:07 pm

This tab is really great man! Thanks :)

I want to post or [tab]
guest
You may want to rate the tab now too:
select rating
Please do not post tabs as comments. Select "correction" instead!