Oops, an error
Loading. Please wait.

Lousy Truth Tab

version 2
version 2

Whole song

15,630 views 21 this week
no commentswrite comment
1 2 3 4 5
excellent!
x 8
add to favorites
launch autoscroll
font size
0
reset
how to read this tab
guitar tuner
Tab Pro tools
  • play this tab
  • loop segment
  • change instrument
  • show fretboard
  • metronome
Autoscroll
slow
fast
+/-
esc
set tempo
stop
Contributor
Difficulty
intermediate
-------------------------------------------------------------------------------
                             THE LOUSY TRUTH - NeverShoutNever
-------------------------------------------------------------------------------
Tabbed by:ANTHONY L.
CAPO ON SECOND FRET

Tuning:STANDARD (also you could pluck the high e string if you want to make it sound more "up")

VERSE 1: "Girl ive been thinking alot.."

e|---------------------------------------------------------------------------|
B|---1---1---1----1-1-1----1---1----1--1----1--1----1---1--------------------|
G|---0---0---0----0-0-0----0---0----0--0----2--2----0---0--------------------|
D|-----------------------------------------2--2------------------------------|
A|--3-------3----3---3--------3----3--2----------------3---------------------|
E|------3----------3------3------------------------3-------------------------|

VERSE 2: "For the past three years.."

e|---------------------------------------------------------------------------|
B|---1-1-1----1---1----1-1-1----1---1----1--1---1--1----1---1----1--1--------|
G|---0-0-0----0---0----0-0-0----0---0----0--0---2--2----0---0----0--0--------|
D|---------------------------------------------2--2--------------------------|
A|--3---3--------3----3---3--------3----3--2---------------3----3--3---------|
E|----3------3----------3------3-----------------------3---------------------|

CHORUS: "So if you go away right now.."

e|-------------------------------------------------------------------------------|
B|----1-1-1-1-1-1-1-1----1--1---1----1-1--1-1-1-1-1-1-1-1----1--1--1--1-1--(1)---|
G|----0-0-0-0-0-0-0-0----0--0---2----2-2--0-0-0-0-0-0-0-0----0--0--2--2-2--(0)---|
D|-----------------------------2----2-2---------------------------2--2-2---------|
A|----------------------3--2--------------------------------3--2----------(2)----|
E|---3-3-3-3-3-3-3-3---------------------3-3-3-3-3-3-3-3-------------------------|

e|---------------------------------------------------------------------------|
B|-----1---1---1--1-1-----1---1----------------------------------------------|
G|-----0---0---2--2-2-----0---0----------------------------------------------|
D|------------2--2-2---------------------------------------------------------|
A|----3--2-------------------3-----------------------------------------------|
E|-----------------------3---------------------------------------------------|

VERSE 3: "So shine outward not inward.."

e|---------------------------------------------------------------------------|
B|----1-1-1----1---1----1-1-1----1---1---1--1--1--1---1---1---1-1-1----1---1-|
G|----0-0-0----0---0----0-0-0----0---0---0--0--2--2---0---0---0-0-0----0---0-|
D|--------------------------------------------2--2---------------------------|
A|---3---3--------3----3---3--------3---3--2-------------3---3---3--------3--|
E|-----3------3----------3------3--------------------3---------3------3------|

e|---------------------------------------------------------------------------|
B|---1-1-1----1---1----1--1----1--1----1---1---1--1--------------------------|
G|---0-0-0----0---0----0--0----2--2----0---0---0--0--------------------------|
D|----------------------------2--2-------------------------------------------|
A|--3---3--------3----3--2----------------3---3--3---------------------------|
E|----3------3------------------------3--------------------------------------|

CHORUS: "So if you go away.."

e|--------------------------------------------------------------------------------|
B|---1-1-1-1-1-1-1-1----1--1--1--1-1---1-1-1-1-1-1-1-1---1--1---1-1--(1)----------|
G|---0-0-0-0-0-0-0-0----0--0--2--2-2---0-0-0-0-0-0-0-0---0--0---2-2--(0)----------|
D|---------------------------2--2-2----------------------------2-2----------------|
A|---------------------3--2-----------------------------3--2--------(2)-----------|
E|--3-3-3-3-3-3-3-3-------------------3-3-3-3-3-3-3-3-----------------------------|

e|---------------------------------------------------------------------------|
B|---1--1---1-1----1--1----1--1----------------------------------------------|
G|---0--0---2-2----0--0----0--0----------------------------------------------|
D|---------2-2---------------------------------------------------------------|
A|--3--2-------------3----3--2-----------------------------------------------|
E|----------------3----------------------------------------------------------|

VERSE 4: "So go to school in chicago.."

e|---------------------------------------------------------------------------|
B|----1-1---1-1---1-1-1-1------1-1---1-1---1-1-1-1---1--1--1-1-----1-1-1-1---|
G|----2-2---0-0---0-0-0-0------2-2---0-0---0-0-0-0---0--2--0-0-----0-0-0-0---|
D|---2-2----------------------2-2----------------------2---------------------|
A|---------3-3----------------------3-3-------------3-----3-3----------------|
E|---------------3-3-3-3------------------3-3-3-3-----------------3-3-3-3----|

e|---------------------------------------------------------------------------|
B|----1-----1---1----1--1-----1-----1----------------------------------------|
G|----2-----0---0----0--0-----0-----0----------------------------------------|
D|---2-----------------------------------------------------------------------|
A|-------------3----3--2------------3----------------------------------------|
E|---------3-----------------3-----------------------------------------------|

CONCLUSION/END : "but just so you know, ive been thinkin.."

e|---------------------------------------------------------0-----------------|
B|---1---1----1----1-1-1----1---1----1--1---1-1-----1------1-----------------|
G|---0---0----0----0-0-0----0---0----0--0---2-2-----0------0-----------------|
D|-----------------------------------------2-2-------------2-----------------|
A|--3--------3----3---3--------3----3--2-------------------3-----------------|
E|------3-----------3------3-----------------------3-------0-----------------|

And that's the lousy truth (:

************************************

| /   slide up
| \   slide down
| h   hammer-on
| p   pull-off
| ~   vibrato
| +   harmonic
| x   Mute note
| b   Bend
| pb  Pre-bend
| br  Bend release
| pbr Pre-bend release
| brb Bend release bend
  () = Optional
************************************
comments
print report bad tab
I want to post or [tab]
guest
You may want to rate the tab now too:
select rating
Please do not post tabs as comments. Select "correction" instead!