Oops, an error
Loading. Please wait.

Love Is Our Weapon Tab

17,914 views 1 this week
2 commentsread comments
1 2 3 4 5
accurate
x 5
add to favorites
launch autoscroll
font size
0
reset
how to read this tab
guitar tuner
Tab Pro tools
  • play this tab
  • loop segment
  • change instrument
  • show fretboard
  • metronome
×
Best way to learn
"Love Is Our Weapon"
Autoscroll
slow
fast
+/-
esc
set tempo
stop
Difficulty
intermediate
Here are the chords, sorry if its confusing, this is my first tab...so dont 
i think it sounds good...=)

D---> 000232-|
A---> 002220-|
E---> 022100-|
F#m7-->242222
Dm--->000231-------------------------------------|
-------------------------------------------------|

 D, A, E, A
Hey everybody take a look around
 D, A
Put your money where your mouth is
  E, A
Take your eyes off the ground
 D, A, E, A
We've got a hard day a comin' if we can't work out
  D, A, E, A
All the pissy little problems that we're fighting about

D, A, E, A
------------------------------------------------------------
A, E, F#m7
See I never got involved in politics

 F#m7, D, Dm, A
 Cause they always brought out the worst in my folks

A, E, F#m7
But I always swore to them if I could make a change at all

F#m7, D, Dm, A
I'd love this world before it implodes

 E
Cause we all want change
E
And we want it now
----------------------------------------------------------------
D, A, E, A
Hey everybody take a look around

 D, A
Put your money where your mouth is

  E, A
Take your eyes off the ground

 D, A, E, A
We've got a hard day a comin' if we can't work out

 D, A, E, A
All the pissy little problems that we're fighting about

 D, A, E, A
-------------------------------------------------------------------
 ON: (love)  (weapon)  (lukewarm) (congregation)
F#m7          E           A            D
----------------------------------------------------------------|
-----2-----------0-----------2-----------3----------------------|
----2--2-------1--1--------2--2--------2---2-----REPEAT---------|
-------------------------------------0--------------------------|
-------------2-----------0--------------------------------------|
-2--------------------------------------------------------------|
And love is the weapon for this lukewarm congregation

And love is the only thing that's kept me believin'

  F#m7, E, A, D
And love is the weapon for this wounded generation
  F#m7, E, A, D
And love is the only thing that's kept me believin'
---------------------------------------------------------------------
   E
That the world will change (the world will all change)
 E
Yeah we all want change (we want it now)
---------------------------------------------------------------------
D, A, E, A
Hey everybody take a look around

D, A
Put your money where your mouth is

 E, A
Take your eyes off the ground

D, A, E, A
We've got a hard day a comin' if we can't work out

D, A, E, A
All the pissy little problems that we're fighting about
D, A
---------------------------------------------------------------
Mka...the songs over now..bue bye....bue bye =)
comments
print report bad tab
2 comments total.
0 reply
saharok wrote on February 9 2010, 09:53 pm

Can somebody please tell me what's the strumming pattern?

0 reply
britt18 wrote on June 29 2010, 01:15 am

I think its just up down up down. Nothing fancy.

I want to post or [tab]
guest
You may want to rate the tab now too:
select rating
Please do not post tabs as comments. Select "correction" instead!