Oops, an error
Loading. Please wait.

Shes Got Style Bass Tab

1,297 views 1 this week
no commentswrite comment
1 2 3 4 5
excellent!
x 1
add to favorites
launch autoscroll
font size
0
reset
guitar tuner
Tab Pro tools
  • play this tab
  • loop segment
  • change instrument
  • show fretboard
  • metronome
×
Best way to learn
"Shes Got Style"
Autoscroll
slow
fast
+/-
esc
set tempo
stop
Contributor
Difficulty
intermediate
-------------------------------------------------------------------------------
			     Shes Got Style - Nevershoutnever
-------------------------------------------------------------------------------

Tabbed By : Antoniyo55
e-mail: ajt350z@yahoo.com

Tuning:Standerd

Verse
G|---------------------------------------------------------------------------|
D|---------------------------------------------------------------------------|
A|--------------------------6----------8-------------------------------------|
E|6------5--------3----------------------------------------------------------|

Verse pt2
G|---------------------------------------------------------------------------|
D|---------------------------------------------------------------------------|
A|--------------------------6~-----------------------------------------------|
E|6------5--------3----------------------------------------------------------|

Pre Chorus
G|---------------------------------------------------------------------------|
D|---------------------------------------------------------------------------|
A|3------6--------3---------6------------------------------------------------|
E|---------------------------------------------------------------------------|

Chorus x5
G|---------------------------------------------------------------------------|
D|---------------------------------------------------------------------------|
A|--------8--------------------6---------8-----------------------------------|
E|6------------------3-------------------------------------------------------|

Verse 2
G|---------------------------------------------------------------------------|
D|---------------------------------------------------------------------------|
A|-----------------------------6----------8----------------------------------|
E|6--------5----------3------------------------------------------------------|

Pre Chorus
G|---------------------------------------------------------------------------|
D|---------------------------------------------------------------------------|
A|3----------6-----------3----------6----------------------------------------|
E|---------------------------------------------------------------------------|

Chorus x2
G|---------------------------------------------------------------------------|
D|---------------------------------------------------------------------------|
A|----------8----------------------6---------8-------------------------------|
E|6--------------------3-----------------------------------------------------|

G|---------------------------------------------------------------------------|
D|---------------------------------------------------------------------------|
A|----------8----------------------------------------------------------------|
E|3--------------------------------------------------------------------------|

G|---------------------------------------------------------------------------|
D|---------------------------------------------------------------------------|
A|----------8-------------------8--------------------------------------------|
E|6--------------------3-----------------6-----------5-----------------------|

G|---------------------------------------------------------------------------|
D|---------------------------------------------------------------------------|
A|----------8----------------------------------------------------------------|
E|3--------------------6--------5---6----------------------------------------|


| /  slide up
| \  slide down
| h  hammer-on
| p  pull-off
| ~  vibrato
| +  harmonic
| x  Mute note
===============================================================================
comments
We did not receive enough feedback on this tab! Please rate:
print report bad tab
1 2 3 4 5
I want to post or [tab]
guest
You may want to rate the tab now too:
select rating
Please do not post tabs as comments. Select "correction" instead!