Oops, an error
Loading. Please wait.

The Yippee Chords

15,789 views 9 this week
1 commentread comment
1 2 3 4 5
excellent!
x 4
add to favorites
launch autoscroll
font size
0
reset
transpose
0
reset
simplify chords
- display chords -
guitar tuner
Tab Pro tools
  • play this tab
  • loop segment
  • change instrument
  • show fretboard
  • metronome
Autoscroll
slow
fast
+/-
esc
set tempo
stop
Contributor
----------------------------------------------------------------------------
	                        The Yippee! EP 
----------------------------------------------------------------------------
I Had some help putting this together with a few people on UG! 
I put them all together so people could just print this off. :D

1. Heregoesnothin'
2. Bigcitydreams
3. Smelyalata
4. Dare4distance
5. Uraltalk (Bonus Track)
6. Overtheyears (Demo) (Bonus Track)

----------------------------------------------------------------------------
	                     Heregoesnothin' (Bobboes)
----------------------------------------------------------------------------

Tuned Half Step Down:

Uncommon Chords in this song:
Asus: x02200
Bsus: x24400
C#sus: x46600


There is a lot of strumming on muted strings. 

Asus
If timings everything
                                       C#sus  
stop telling me you're taking your time
                   Bsus
I know you're anxious
                                          Asus
But you're running your mouth like you're five
                   
Years old again
  C#sus              Bsus
It's so hard to pretend

Asus
Like I know everything

I dont know anything
C#sus           Bsus
I wanted you to see

That I got nothin

A        Bsus          C#sus                     Bsus
I'll sit back and I'll watch the show, Yeah I'll watch the show
    A    Bsus           C#sus              Bsus
I'll lay awake and I'll watch the stars as they collide

C#sus          Bsus
My eyes they do see  
        E               Bsus       Csus  
I don't breathe the way I used to
C#sus              Bsus
My lips they don't sing
        E            Bsus        A
I won't be the way I was on that night

A Bsus x4

A                         Bsus                     <|This is
Steady breathing is all I can advise                |A Confusing
                                 A                  |strumming Pattern
To a girl with a sweet tooth for revenge            |The chords are not
                             Bsus                   |quit matched up
I know I'm crazy but it's so hard to pretend       <|with the words. 


Asus
Like I know everything

I dont know anything
C#sus           Bsus
I wanted you to see

A        Bsus          C#sus                     Bsus
I'll sit back and I'll watch the show, Yeah I'll watch the show
    A    Bsus           C#sus              Bsus
I'll lay awake and I'll watch the stars as they collide

C#sus          Bsus
My eyes they do see  
        E               Bsus       Csus  
I don't breathe the way I used to
C#sus              Bsus
My lips they don't sing
        E            Bsus        A
I won't be the way I was on that night

A                                   Bsus            
Was the night everbody agreed I was wrong about you
                              C#sus
I told them you were being so strong
                  
I knew you were a liar
Bsus
I knew you were a liar from the start
(x2)

A
Don't treat me like I'm playing a game
                   Bsus     
Cause baby I don't want to lose
                                C#sus    Bsus     A (hold)
Baby I don't want to risk it all for you

C#sus          Bsus
My eyes they do see  
        E               Bsus       Csus  
I don't breathe the way I used to
C#sus              Bsus
My lips they don't sing
        E            Bsus        A
I won't be the way I was on that night


----------------------------------------------------------------------------                  
Bigcitydreams (btsgreg and zachtherunner)
----------------------------------------------------------------------------

Standard Tuneing

 C
You say we're both little people and you like it that way
 Am
But in time I'm gunna put this body to shame (and grow old)
 F
Where a suit like my old man
 G
Pack up all my things and get my Ass out of town



              C
We've got it good
                              Am
Whether you like this town or not
                 
I know it's small but with a big head
                   F
it's bound to get hot

In the summer

But the summer is a bummer
    G
If you can't leave
                            Am
This pathetic excuse for a town


 Am
That holds all your memories
 C
A lifetime of crushes and your broken dreams
 F
To be anywhere but here
 G
But baby anywhere is away from me


 C                    Am
If you got it all figured out
                       F
Then what is there to shout about
      G
This midwest town is gunna miss you
 C                  Am
Just go ahead and work it out
                       F
But first come on and let it out
 G
Scream it shout tell everbody that your gunna leave

Interlude - The chord progression C, Am, F, and G is played over the following -

e|---------------------------------------------------------1/3----|
B|--------1--0~---1/3--5b--5--3--1--0~---1/3--3b~--3/5-6b---------|
G|----------------------------------------------------------------|
D|----------------------------------------------------------------|
A|-----2b---------------------------------------------------------|
E|---3------------------------------------------------------------|

 
 C
In about one year you'll have it all figured out
 Am
These big city dream are what you're about
 F
Walking like stangers among these states
 G
Only time will tell how long I can wait


              C
We've got it good
                              Am
Whether you like this town or not

I know it's small but with a big head
                   F
it's bound to get hot

In the summer

But the summer is a bummer
    G
If you can't leave
                            Am
This pathetic excuse for a town


 Am
That holds all your memories
 C
A lifetime of crushes and your broken dreams
 F
To be anywhere but here
 G
But baby anywhere is away from me



 C                  Am
If you got it all figured out
                       F
Then what is there to shout about
       G
This midwest town is gunna miss you
 C                  Am 
Just go ahead and work it out
                       F
But first come on and let it out
  G
Scream it shout tell everbody that your gonna leave


 Am               F
Me again oh so casually
                  C                  G
Did you take the hit for me or the home team

 
Bass interlude - transcribed for guitar
e|---------------------------------------------------------------------|
B|---------------------------------------------------------------------|
G|---------------------------------------------------------------------|
D|---------------------------------------------------------------------|
A|---------------------------------------------------------------------|
E|--6h8--8888--6h8--10--12--15---5555-5h7--9--11--12-1111--1h3--5--7---|

e-------------|----------------------|    |----------------------|
B|------------|----------------------|    |----------------------|
G|------------|-----Ending One-------| OR |-----Ending Two-------|
D|------------|----------------------|    |----------------------|
A|------------|----------------------|    |----------------------|
E|--12--7777--|--7h8--10--12--15--8--|    |--7--7h8--10--12--8---|


If you got it all figured out
Then what is there to shout about
This midwest town is gonna miss you


----------------------------------------------------------------------------
	                      Smelyalata ()
----------------------------------------------------------------------------
Standard Tuning
Capo on 5th Fret


                       Cadd9               G
I know that I've been dancing around the truth
                  Em         D 
Tell me what the hell I'm supposed to do
  Cadd9                     G            
And I, I'm a little bit aggitated
         Em               D  
With a slight scent of denile


       G                                   
I'm calling all the time I know I interupt
        Em                                          
But it hurts when all I hear is you hanging up
Cadd9                    
La da da da da da da
        D             
I wont try that again


       G
I'm calling all the time I know I interupt
        Em
But it hurts when all I hear is you hanging up
Cadd9
La da da da da da da
        D
I wont try that again

*Speed It Up*
G, Em, Cadd9, D


Cadd9
La la la la
G
La la la la
Em
La la la la
D
La la la la

(Hello?)

Cadd9
La la la la
G
La la la la
Em
La la la la
D
La la la la


Cadd9                                             G
Everybody's going to the party and were having a good time
                       Em            D                                      
I'm feeling alright tonight with a better judgement
Cadd9                                             G
Everybody's going to the party and were having a good time
                       Em            D
I'm feeling alright tonight with a better judgement
Cadd9                                             G
Everybody's going to the party and were having a good time
                       Em            D
I'm feeling alright tonight with a better judgement


G
I'm calling all the time I know I interupt
    Em
It hurts when all I hear is you hanging up
Cadd9
La da da da da da da
        D
I wont try that again
G
I'm calling all the time I know I interupt
    Em
It hurts when all I hear is you hanging up
Cadd9
La da da da da da da
D
I wont try that again


----------------------------------------------------------------------------
	                   Dare4Distance (cylewithac3333)
----------------------------------------------------------------------------

Standard Tuning

INTRO/VERSE!


   I got the concept...  top floor...  fact that...  cant' get...
e|------------0------------0------------0-------------0--------------------|
B|------------0------------0------------0-------------0--------------------|
G|------------9------------9------------6-------------2--------------------|
D|------------9------------9------------6-------------4--------------------|
A|------------7------------6------------4-------------4--------------------|
E|------------0------------0------------0-------------0--------------------|


          you appeared...  marched... is where...    both just...
e|------------0~-----------0~-----------0~------------0~-------------------|
B|--------0---0~-----------0~-----------0~------------0~-------------------|
G|------------9~-----------9~-----------6~------------2~-------------------|
D|------------9~-----------9~-----------6~------------4~-------------------|
A|------------7~-----------6~-----------4~------------4~-------------------|
E|------------0~-----------0~-----------0~------------0~-------------------|


     although the distance is daring we both know how to drive
e|-------------------0-------------------0-----------------0---------------|
B|-------------------0-------------------0-----------------0---------------|
G|-------------------6-------------------4-----------------0---------------|
D|-------------------6-------------------4-----------------2---------------|
A|-------------------4-------------------2-----------------2---------------|
E|-------------------0-------------------0-----------------0---------------|



CHORUS!



     we can't  make up... lost times... I can't stand the fact...
e|---0~---------0~---------0~-----------0~-------0~--------0~--------------|
B|---0~---------0~---------0~-----------0~-------0~--------0~--------------|
G|---1~---------4~---------2~-----------1~-------4~--------2~--------------|
D|---2~---------4~---------2~-----------2~-------4~--------2~--------------|
A|---2~---------2~---------0~-----------2~-------2~--------0~--------------|
E|---0~---------0~---------0~-----------0~-------0~--------0~--------------|

  is the center   of my   day
e|---------0--------0------0-----------------------------------------------|
B|---------0--------0------0-----------------------------------------------|
G|---------6--------4------2-----------------------------------------------|
D|---------6--------4------2-----------------------------------------------|
A|---------4--------2------0-----------------------------------------------|
E|---------0--------0------0-----------------------------------------------|



VERSE!

play the verse but just mute all the strings and keep a strum going in
between the chords till the end



CHORUS!

play it the same but repeat the ending once


BRIDGE!

   mon..   tues..    wed..    worst..  thurs..   fri..   face.. breathe..   
e|---0~-------0~-------0~-------0~-------0~-------0~-------0~-------0~-----|
B|---0~-------0~-------0~-------0~-------0~-------0~-------0~-------0~-----|
G|---1~-------4~-------6~-------2~-------1~-------4~-------6~-------2~-----|
D|---2~-------4~-------6~-------2~-------2~-------4~-------6~-------2~-----|
A|---2~-------2~-------4~-------0~-------2~-------2~-------4~-------0~-----|
E|---0~-------0~-------0~-------0~-------0~-------0~-------0~-------0~-----|



OUTRO!

     although the distance is daring i sure know what its like to be alone
e|-------------------0-------------------0-----------------0---------------|
B|-------------------0-------------------0-----------------0---------------|
G|-------------------6-------------------4-----------------2---------------|
D|-------------------6-------------------4-----------------2---------------|
A|-------------------4-------------------2-----------------0---------------|
E|-------------------0-------------------0-----------------0---------------|

Hope This Helps


----------------------------------------------------------------------------
	                         Uraltalk (Mister Owl)
----------------------------------------------------------------------------

Capo on 2nd

(one, two, three)

C
i've been packin' my bags 

i'll be headin' down south 
          Am                    C
by the time graduation rolls around
                               
where the weather is warmer
        Am
and the people are fresh
        
C
i'll be ponderin' life,
                      Am
doin' my time on the roooad
C                              Am                      
pedal to the metal in my 1999 ford
                              
Em                      G
and all my life in one place
Em                         G
i've done my time but i've lost the race
                         
C
i've been workin' my ass off
            Am
trying to find the part of me
               F
my friends all miss
       G        
but honestly..
       
i'm kinda fed up with

C
all this advice,

but never a sign..
Am                           F
should i stay? or should i go away?
       G                      
all to find
       
the better half of me

C
i've got this spare change
                   Am
i'll be sendin' souvenirs
                     C
to all my friends up north
                     
where the weather is cooler
         Am
and the people are dull
         
C
i'll be ponderin' life,
                     Am
doing my time on the roooad
C                              Am                   
pedal to the metal in my 1999 fooord
                              
Em                    G
and all my life in one place
Em                        G
i've done my time but i've lost the race
                        
C
i've been workin' my ass off
         Am
trying to find the part of me
               F
my friends all miss
           G    
but honestly..
           
i'm kinda fed up with

C
all this advice,

but never a sign..
Am                           F
should i stay? or should i go away?
         G                     
all to find
        
the better half of me 


La Da's: C,Am,F,G

----------------------------------------------------------------------------
	               Overtheyears (Demo) (familyforce5rul)
----------------------------------------------------------------------------

Standard Tuning

Intro: C D Em 2x


    C             D                Em
I'm sorry for the nights I let you down
    C                  D          Em
now all that's left to say is that I turned around
C           D               Em
back to the boy you fell in love with
C           D                  Em
   not this plague that brings you down


C                  D         Em
Remind your mom to call me I still care
          C                  D          Em
cause her approval meant the world and I would not dare to
C                 D           Em
disagree with the life you've arranged
     C             D            Em
just remember only God knows if I've changed


          A              C
I'll sing along to every song
           A           C (hold)
I'll tag a lie for the ride


      G    D    Em        C           D
Cause in   my   head, I'd write there too
            G
through the good times
    D            Em
the bad ones too
    C        D
I'm here for you
      G      D    Em
cause when   I    dream
           C       D        G
you're the one who keeps me asleep
   D                         Em
on nights where I could care less
     C         D
if I ever woke up again


End on G


I Hope you all enjoyed these tabs I give thanks to everyone that has tabbed these 
and everyone that helped! :) 
Let's make the world a happier place!
Leave comments
comments
print report bad tab
1 comment total.
0 reply
nevershoutjenny wrote on August 1 2009, 11:48 pm

good tabs!
but uraltalk is upside down and
some of the lyrics in it are wrong

I want to post or [tab]
guest
You may want to rate the tab now too:
select rating
Please do not post tabs as comments. Select "correction" instead!