Oops, an error
Loading. Please wait.

Moving Closer Tab

version 2
version 2

Whole song

11,363 views 36 this week
1 commentread comment
1 2 3 4 5
please rate
add to favorites
launch autoscroll
font size
0
reset
how to read this tab
guitar tuner
Autoscroll
slow
fast
+/-
esc
set tempo
stop
Help us to improve Ultimate-Guitar.com Take our survey!
×
Contributor
Difficulty
intermediate
Moving Closer – Never the Strangers (fingerstyle guitar)
Arranged by: Ralph Jay Triumfo
YT Channel: youtube.com/ralphjay14
Original Video Cover: youtube.com/watch?v=wQf5DhFUeLM
Facebook Page: facebook.com/pages/Ralph-Jay-Triumfo/184492391578

Intro: C----
|--------3-2--2h3--0-----3-2-----------|
|----0-------------------------3---0---|
|--0--0------0---0---0-------0---0-----|
|--------------------------------------|
|----------3~--------------3~----------|
|--------------------------------------|

|--------3-2--2h3--0-----3-2-----------|
|----0-------------------------3-------|
|--0--0------0---0---0-------0---0-----|
|----------------------------------2---|
|----------3~--------------3~----------|
|--------------------------------------|

Verse 1: G-C-Em-C
When you smile...
|--------------------------------------|
|--0---3------1------0--------1--------|
|----0---0----0—-0h2-----0----0--------|
|----------2--2--------2---2--2--------|
|--2-----3~---3----------3~---3--------|
|--3~----------------0~----------------|

|--------------------------------------|
|--0-0-3------1------0--------1--------|
|--------0----0—-0h2-----0----0--------|
|----------2--2--------2---2--2--------|
|--2-----3~---3----------3~---3--------|
|--3~----------------0~----------------|

|--------------------------------------|
|--0---3------1------0--------1--------|
|----0---0----0—-0h2-----0----0--------|
|----------2--2--------2---2--2--------|
|--2-----3~---3----------3~---3--------|
|--3~----------------0~----------------|

|--------------------------------------|
|--0---3------1------0--------1--------|
|----0---0----0—-0h2-----0----0--------|
|----------2--2--------2---2--2--------|
|--2-----3~---3----------3~---3--------|
|--3~----------------0~----------------|

Refrain: D--C--D—C—
.....Come away with me...
|--2--0----2-----0-----3-3--2--0---------0--3-3-|
|--3-----3-3-0h3-------3-3--3----3-0-0-3--3-3-3-|
|--2-2-2---2-------0-0-0-0--2---------------0-0-|
|--0~------0-----------2----0~---0----------2---|
|----------------3~----3-----------------3~-3---|
|-----------------------------------------------|

Chorus: 1st: C-D-Bm-C 2nd: C-D-Em-Bm 3th: C-D-Bm-C 4th: C-D-Em-D-C-D
Inch by inch...
|----------------0---------------------|
|--0-3---3---3-3-----3--3-------1------|
|------0-------2--------2--2--0-0------|
|------2---0------------0-------2------|
|--3---3-----------2----2---3---3------|
|--------------------------------------|

|-----------0--------0-----------------|
|--0-3-0-3----3-0----0-----------------|
|------0------2------0--2-4------------|
|------2---0-------2-2-----------------|
|--3---3-------------2--2--------------|
|----------------0---0-----------------|

|----------------0---------------------|
|--0-3---3---3-3-----3--3-------1------|
|------0-------2--------2--2--0-0------|
|------2---0------------0-------2------|
|--3---3-----------2----2---3---3------|
|--------------------------------------|
                                                  (harmonics)
|--------0-------------0-----2----------------------------|
|--0-3-0-----3-0-0-----0-----3----------(12)(12)----------|
|------0-------2-------0---2-2--(12)(12)-----------2-0-0--|
|------2---0---------2-2--0--0-------------------0--------|
|--3---3---------------2----------------------------------|
|------------------0---0---------8~-----------------------|

Outro: G-C-Em-C
|--3-3-2--2h3-0-0-------------------|
|--3---3--------0--3-0------1-------|
|--0---0--------0------2-0--0-------|
|--0---2--------2-----------2-------|
|--2---3--------2--------3--3-------|
|--3------------0-------------------|

Verse 2: G-C-Em-C (the bass notes must be palm muted)
Who’d have thought...
|---------------------------------------|
|--0---3------1------0---------1--------|
|--------0----0—-0h2------0----0--------|
|-------------2--------2----2--2--------|
|--2-----333333-----------333333--------|
|--33333-------------00000--------------|

|---------------------------------------|
|--0---3------1------0---------1--------|
|--------0----0—-0h2------0----0--------|
|-------------2--------2----2--2--------|
|--2-----333333-----------333333--------|
|--33333-------------00000--------------|

Refrain: D--C--D--C--
I’ll hold my breath...
|--2--0----2-----0-----3-3--2--0---------0--3-3-|
|--3-----3-3-0h3-------3-3--3----3-0-0-3--3-3-3-|
|--2-2-2---2-------0-0-0-0--2---------------0-0-|
|--0~------0-----------2----0~---0----------2---|
|----------------3~----3-----------------3~-3---|
|-----------------------------------------------|

Chorus: 1st: C-D-Bm-C 2nd: C-D-Em-Bm 3th: C-D-Bm-C 4th: C-D-Em-D-C-D
Inch by inch...
|----------------0---------------------|
|--0-3---3---3-3-----3--3-------1------|
|------0-------2--------2--2--0-0------|
|------2---0------------0-------2------|
|--3---3-----------2----2---3---3------|
|--------------------------------------|

|-----------0--------0-----------------|
|--0-3-0-3----3-0----0-----------------|
|------0------2------0--2-4------------|
|------2---0-------2-2-----------------|
|--3---3-------------2--2--------------|
|----------------0---0-----------------|

|----------------0---------------------|
|--0-3---3---3-3-----3--3-------1------|
|------0-------2--------2--2--0-0------|
|------2---0------------0-------2------|
|--3---3-----------2----2---3---3------|
|--------------------------------------|

|--------0-------------0-----2---------|
|--0-3-0-----3-0-0-----0-----3---------|
|------0-------2-------0---2-2---------|
|------2---0---------2-2--0--0---------|
|--3---3---------------2---------------|
|------------------0---0---------------|
Inch by inch...
|----------------0---------------------|
|--0-3---3---3-3-----3--3-------1------|
|------0-------2--------2--2--0-0------|
|------2---0------------0-------2------|
|--3---3-----------2----2---3---3------|
|--------------------------------------|

|-----------0---3----0--2--------------|
|--0-3-0-3----3------0-----3-----------|
|------0------2------0-----2-----------|
|------2---0-------2-2--0--0-----------|
|--3---3-------------2-----------------|
|----------------0---0-----------------|

|----------------0---------------------|
|--0-3---3---3-3-----3--3-------1------|
|------0-------2--------2--2--0-0------|
|------2---0------------0-------2------|
|--3---3-----------2----2---3---3------|
|--------------------------------------|

|--------3--2-2-2-----0-----2----------|
|--0-3-0------3-------0-----3----------|
|------0------2-------0---2-2----------|
|------2---0--0-----2-2--0--0----------|
|--3---3--------------2----------------|
|-----------------0---0----------------|

...moving closer...
|------0-------------------------------|
|-----------3-3--0-0-3-----3-----------|
|------0------2----2-------0-----------|
|----2-2--0---0----0-----2-2-----------|
|--3---3---------2-2---3---3-----------|
|--------------------------------------|

|------0------------2---3-2-0----------|
|-----------3-0-0-----------3-3--------|
|------0------2-------------2----------|
|----2-2--0---0-------2--0--0----------|
|--3---3--------------2----------------|
|-----------------0---0----------------|

|------0------------------0------------|
|-----------3-3--0--------1------------|
|------0------2-----2--0--0------------|
|----2-2--0---0-----0-----2------------|
|--3---3---------------3--3------------|
|----------------0---------------------|

(harmonics)
I’m moving closer to you.
|----------------------------|
|----------(12)(12)----------|
|--(12)(12)-----------2-0-0--|
|-------------------0--------|
|----------------------------|
|---8~-----------------------|

Outro: G-C-Em-C
|--3-3-2-2h3-0---3-2---3~--------------|
|--3---3-------0---3-3-3~--------------|
|--0---0-------0---0---0~--------------|
|--0---2-------2---2---0~--------------|
|--2---3-------2---3---2~--------------|
|--3-----------0-------3~--------------|

For more fingerstyle guitar tabs, subscribe to my youtube channel and like my page on 
facebook. Thank you. :)
comments
We did not receive enough feedback on this tab! Please rate:
print report bad tab
1 2 3 4 5
1 comment total.
0 reply
Jessie.E.Maxwel 11 wrote on March 26 2013, 10:15 pm

Thank you for this tab (:

I want to post or [tab]
guest
You may want to rate the tab now too:
select rating
Please do not post tabs as comments. Select "correction" instead!