Oops, an error
Loading. Please wait.

Believe In Nothing Bass Tab

version 1
version 1

Whole song

Interactive

1,462 views 1 this week
no commentswrite comment
1 2 3 4 5
please rate
add to favorites
launch autoscroll
font size
0
reset
guitar tuner
Autoscroll
slow
fast
+/-
esc
set tempo
stop
Help us to improve Ultimate-Guitar.com Take our survey!
×
Author
#----------------------------------PLEASE NOTE---------------------------------#
#This file is the author's own work and represents their interpretation of the #
#song. You may only use this file for private study, scholarship, or research. #
#------------------------------------------------------------------------------#

BELIEVE IN NOTHING (Bassline)
As recorded by Nevermore
(From the 2000 Album DEAD HEART IN A DEAD WORLD)


Transcribed by momy

 Words and Music by Nevermore
Arranged by Nevermore
 

Gtr I (Eb Ab Db Gb) - 'Untitled'


 Intro
  Q=135
 4/4
  Gtr I
  Q  Q.   E Q    +H     H      Q  Q.   E Q    +H     H
|--------------|-------------|--------------|-------------|
|--------------|-------------|--------------|-------------|
|--------------|-------------|--------------|-------------|
|-2--2----2-5--|-(5)----5----|-0--0----0-3--|-(3)----3----|


                                                           Verse
  Q  Q.   E Q    +H     Q  Q    Q  Q.   E Q    +W           W
|--------------|--------------|--------------|------------|------|
|--------------|--------------|--------------|------------|------|
|--------------|--------------|--------------|------------|-9----|
|-2--2----2-5--|-(5)----7--5--|-0--0----0-3--|-(3)--------|------|


  +H     H      W          +H     H      Q.   +H     E   +H     H
|-------------|----------|-------------|---------------|-------------|
|-------------|----------|-------------|---------------|-------------|
|-(9)----7----|-5--------|-(5)----5----|-0----(0)----0-|-(0)----5----|
|-------------|----------|-------------|---------------|-------------|


  Q.   +H     E   +H     +E  E E E   W          +H     H
|---------------|----------------2-|----------|-------------|
|-2----(2)----2-|-(2)----(2)---2---|----------|-------------|
|---------------|------------4-----|-9--------|-(9)----7----|
|---------------|------------------|----------|-------------|


  W          +H     H      Q.   +H     E   +H     H
|----------|-------------|---------------|-------------|
|----------|-------------|---------------|-------------|
|-5--------|-(5)----5----|-0----(0)----0-|-(0)----5----|
|----------|-------------|---------------|-------------|


  Q.   +H     E   +H     +E  E E E   W          +H     H
|---------------|----------------2-|----------|-------------|
|-2----(2)----2-|-(2)----(2)---2---|----------|-------------|
|---------------|------------4-----|-9--------|-(9)----7----|
|---------------|------------------|----------|-------------|


  W          +H     H      Q.   +H     E
|----------|-------------|---------------|
|----------|-------------|---------------|
|-5--------|-(5)----5----|-0----(0)----0-|
|----------|-------------|---------------|


                               Pre-Chorus
  +H     H      Q.   +H     E   +H     E E E E
|-------------|---------------|-----------------|
|-------------|-2----(2)----2-|-(2)-------------|
|-(0)----5----|---------------|--------7-9---9--|
|-------------|---------------|-----------------|


  H    Q  E E   +E  E Q  E Q.     E E E E Q.   E
|-------------|-----------------|----------------|
|-------------|-----------------|----------------|
|-5----5--5-5-|-(5)-5-5----7----|-7-9-9-9-9----9-|
|-------------|-----------------|----------------|


  +E  E Q.   Q.     H    Q  E E   +E  E Q  E Q.
|-----------------|-------------|------------------|
|-----------------|-------------|------------------|
|-(9)-7-7----9----|-5----5--5-5-|-(5)-5-5----7-----|
|-----------------|-------------|------------------|


                                  Chorus
  E E E E Q.   E   +E  E Q  H      Q  Q.   E Q
|----------------|---------------|--------------|
|----------------|---------------|--------------|
|-7-9-9-9-9----9-|-(9)-7-7--7----|--------------|
|----------------|---------------|-2--2----2-5--|


  +H     H      Q  Q.   E Q    +H     H
|-------------|--------------|-------------|
|-------------|--------------|-------------|
|-------------|--------------|-------------|
|-(5)----5----|-0--0----0-3--|-(3)----3----|


  Q  Q.   E Q    +H     Q  Q    Q  Q.   E Q
|--------------|--------------|--------------|
|--------------|--------------|--------------|
|--------------|--------------|--------------|
|-2--2----2-5--|-(5)----7--5--|-0--0----0-3--|


              Guitar Solo 1
  +W           W          +H     H
|------------|----------|-------------|
|------------|----------|-------------|
|------------|-9--------|-(9)----7----|
|-(3)--------|----------|-------------|


  W          +H     H      Q.   +H     E
|----------|-------------|---------------|
|----------|-------------|---------------|
|-5--------|-(5)----5----|-0----(0)----0-|
|----------|-------------|---------------|


  +H     H      Q.   +H     E   +H     +E  E E E
|-------------|---------------|----------------2--|
|-------------|-2----(2)----2-|-(2)----(2)---2----|
|-(0)----5----|---------------|------------4------|
|-------------|---------------|-------------------|


 Verse 2
  W          +H     H      W          +H     H
|----------|-------------|----------|-------------|
|----------|-------------|----------|-------------|
|-9--------|-(9)----7----|-5--------|-(5)----5----|
|----------|-------------|----------|-------------|


                                               Pre-Chorus
  Q.   +H     E   +H     H      Q.   +H     E   +H     E E E E
|---------------|-------------|---------------|-------------------|
|---------------|-------------|-2----(2)----2-|-(2)---------------|
|-0----(0)----0-|-(0)----5----|---------------|--------7-9---9----|
|---------------|-------------|---------------|-------------------|


  H    Q  E E   +E  E Q  E Q.     E E E E Q.   E
|-------------|-----------------|----------------|
|-------------|-----------------|----------------|
|-5----5--5-5-|-(5)-5-5----7----|-7-9-9-9-9----9-|
|-------------|-----------------|----------------|


  +E  E Q.   Q.     H    Q  E E   +E  E Q  E Q.
|-----------------|-------------|------------------|
|-----------------|-------------|------------------|
|-(9)-7-7----9----|-5----5--5-5-|-(5)-5-5----7-----|
|-----------------|-------------|------------------|


                                  Chorus
  E E E E Q.   E   +E  E Q  H      Q  Q.   E Q
|----------------|---------------|--------------|
|----------------|---------------|--------------|
|-7-9-9-9-9----9-|-(9)-7-7--7----|--------------|
|----------------|---------------|-2--2----2-5--|


  +H     H      Q  Q.   E Q    +H     H
|-------------|--------------|-------------|
|-------------|--------------|-------------|
|-------------|--------------|-------------|
|-(5)----5----|-0--0----0-3--|-(3)----3----|


  Q  Q.   E Q    +H     Q  Q    Q  Q.   E Q    +W
|--------------|--------------|--------------|--------|
|--------------|--------------|--------------|--------|
|--------------|--------------|--------------|--------|
|-2--2----2-5--|-(5)----7--5--|-0--0----0-3--|-(3)----|


  Q  Q.   E Q    +H     H      Q  Q.   E Q    +H     H
|--------------|-------------|--------------|-------------|
|--------------|-------------|--------------|-------------|
|--------------|-------------|--------------|-------------|
|-2--2----2-5--|-(5)----5----|-0--0----0-3--|-(3)----3----|


                                                           Guitar Brea
  Q  Q.   E Q    +H     Q  Q    Q  Q.   E Q    +W           W
|--------------|--------------|--------------|------------|----------|
|--------------|--------------|--------------|------------|----------|
|--------------|--------------|--------------|------------|----------|
|-2--2----2-5--|-(5)----7--5--|-0--0----0-3--|-(3)--------|----------|


 k
  W          W          W          W          W          W
|----------|----------|----------|----------|----------|------|
|----------|----------|----------|----------|----------|------|
|----------|----------|----------|----------|----------|------|
|----------|----------|----------|----------|----------|------|


 Guitar Solo 2
  E E E E E E E E   Q  Q.   E Q    +H     H      Q  Q.   E Q    +H     H
|-----------------|--------------|-------------|--------------|-------------|
|---4-4-4-4-4-4-4-|--------------|-------------|--------------|-------------|
|-----------------|--------------|-------------|--------------|-------------|
|---2-2-2-2-2-2-2-|-2--2----2-5--|-(5)----5----|-0--0----0-3--|-(3)----3----|


  Q  Q.   E Q    +H     Q  Q    Q  Q.   E Q    +W
|--------------|--------------|--------------|------------|
|--------------|--------------|--------------|------------|
|--------------|--------------|--------------|------------|
|-2--2----2-5--|-(5)----7--5--|-0--0----0-3--|-(3)--------|


  Q  Q.   E Q    +H     H      Q  Q.   E Q    +H     H
|--------------|-------------|--------------|-------------|
|--------------|-------------|--------------|-------------|
|--------------|-------------|--------------|-------------|
|-2--2----2-5--|-(5)----5----|-0--0----0-3--|-(3)----3----|


  Q  Q.   E Q    +H     Q  Q    Q  Q.   E Q
|--------------|--------------|--------------|
|--------------|--------------|--------------|
|--------------|--------------|--------------|
|-2--2----2-5--|-(5)----7--5--|-0--0----0-3--|


              Out-Chorus
  +W           Q  Q.   E Q    +H     H
|------------|--------------|-------------|
|------------|--------------|-------------|
|------------|-0--0----0-3--|-(3)----3----|
|-(3)--------|--------------|-------------|


  Q  Q.   E Q    +H     H      Q  Q.   E Q    +Q   H    Q
|--------------|-------------|--------------|---------------|
|--------------|-------------|--------------|---------------|
|--------------|-------------|-0--0----0-3--|-(3)--5----3---|
|-3--3----3-6--|-(6)----6----|--------------|---------------|


  Q  Q.   E Q    +W           Q  Q.   E Q
|--------------|------------|--------------|
|--------------|------------|--------------|
|--------------|------------|--------------|
|-3--3----3-6--|-(6)--------|-2--2----2-5--|


  +H     H      Q  Q.   E Q    +H     H
|-------------|--------------|-------------|
|-------------|--------------|-------------|
|-------------|--------------|-------------|
|-(5)----5----|-0--0----0-3--|-(3)----3----|


  Q  Q.   E Q    +H     Q  Q    Q  Q.   E Q    +W
|--------------|--------------|--------------|--------|
|--------------|--------------|--------------|--------|
|--------------|--------------|--------------|--------|
|-2--2----2-5--|-(5)----7--5--|-0--0----0-3--|-(3)----|


  Q  Q.   E Q    +H     H      Q  Q.   E Q
|--------------|-------------|--------------|
|--------------|-------------|--------------|
|--------------|-------------|--------------|
|-2--2----2-5--|-(5)----5----|-0--0----0-3--|


  +H     H      Q  Q.   E Q    +H     Q  Q
|-------------|--------------|---------------|
|-------------|--------------|---------------|
|-------------|--------------|---------------|
|-(3)----3----|-2--2----2-5--|-(5)----7--5---|


  Q  Q.   E Q    +W           Q  Q.   E Q
|--------------|------------|--------------|
|--------------|------------|--------------|
|--------------|------------|--------------|
|-0--0----0-3--|-(3)--------|-2--2----2-5--|


  +H     H      Q  Q.   E Q    +H     H
|-------------|--------------|-------------|
|-------------|--------------|-------------|
|-------------|--------------|-------------|
|-(5)----5----|-0--0----0-3--|-(3)----3----|


  Q  Q.   E Q    +H     Q  Q    Q  Q.   E Q    +W           Q  Q  H
|--------------|--------------|--------------|------------|------------*|
|--------------|--------------|--------------|------------|-4--4-------*|
|--------------|--------------|--------------|------------|------------*|
|-2--2----2-5--|-(5)----7--5--|-0--0----0-3--|-(3)--------|-2--2-------*|




--------------------------------------------------------------------------------


Duration Legend
---------------
W - whole; H - half; Q - quarter; E - 8th; S - 16th; T - 32nd; X - 64th; a - acciaccatura
+ - note tied to previous; . - note dotted; .. - note double dotted
Uncapitalized letters represent notes that are staccato (1/2 duration)
Irregular groupings are notated above the duration line
Duration letters will always appear directly above the note/fret number it represents the
duration for.  Duration letters with no fret number below them represent rests.  Multi-
bar rests are notated in the form Wxn, where n is the number of bars to rest for.  Low
melody durations appear below the staff

Tablature Legend
----------------
 h   - hammer-on
 p   - pull-off
 b   - bend
 pb  - pre-bend
 r   - bend release (if no number after the r, then release immediately)
 /\  - slide into or out of (from/to "nowhere")
 s   - legato slide
 S   - shift slide
 - natural harmonic
[n]  - artificial harmonic
n(n) - tapped harmonic
 ~   - vibrato
 tr  - trill
 T   - tap
 TP  - trem. picking
 PM  - palm muting
\n/  - tremolo bar dip; n = amount to dip
 \n  - tremolo bar down
 n/  - tremolo bar up
/n\  - tremolo bar inverted dip
 =   - hold bend; also acts as connecting device for hammers/pulls
 <> - volume swell (louder/softer)
 x   - on rhythm slash represents muted slash
 o   - on rhythm slash represents single note slash

Misc Legend
-----------
 |  - bar
||  - double bar
||o - repeat start
o|| - repeat end
*|  - double bar (ending)
 :  - bar (freetime)
 $  - Segno
 &  - Coda
Tempo markers -  = BPM(8/16=s8/s16), where s8 = swing 8ths, s16 = swing 16ths

Suggest correction
What's this?
You can suggest a correction to this tab. Community and Mods will review your correction and vote to approve or reject it.
comments
We did not receive enough feedback on this tab! Please rate:
print report bad tab
1 2 3 4 5
guest
You may want to rate the tab now too:
select rating
Please do not post tabs as comments. Select "correction" instead!