Oops, an error
Loading. Please wait.

Beyond Within Tab

version 2
version 2

Whole song

Interactive

1,958 views 3 this week
no commentswrite comment
1 2 3 4 5
excellent!
x 3
add to favorites
launch autoscroll
font size
0
reset
how to read this tab
guitar tuner
Autoscroll
slow
fast
+/-
esc
set tempo
stop
Help us to improve Ultimate-Guitar.com Take our survey!
×
Author
Difficulty
intermediate
#----------------------------------PLEASE NOTE---------------------------------#
#This file is the author's own work and represents their interpretation of the #
#song. You may only use this file for private study, scholarship, or research. #
#------------------------------------------------------------------------------#

  Visit MetalTabs.com for more metal tablature
  
Band: Nevermore
Album: Dreaming Neon Black
Song: Beyond Within

Copyright (c) Century Media records 1999
Version 1.0 - 09-12-05

Originally transcribed by: ExclusiveInc. (konanastass@yahoo.com)
Adds and corrections by: Niklas Spångberg(blood_throne@hotmail.com)

.  - palm mute           /  - slide up to
  - slide down to       ~  - vibrato
h  - hammer on           b  - Bend
p  - pull off            Suffixes for bend
t  - tap                 f  - full bend    h - half bend
ph - pinched harmonic    q  - quarter bend t - tap bend
*  - see comment         ^  - Hold bend    r release bend
x  - Stuccatto           ~  - vibrato bend
,  - slight palm mute    () - ghost note, sustained note
"  - tremolo note        <> - Trill

Tuning Eb Ab Db Gb Bb Eb

If you’ve got any comments, suggestions or corrections, send me an e-mail or PM.

--------------------------------------------------------------------

Fade-in
|-24~~-|
|------|
|------|Gtr
|------|I&II
|------|
|------|

Riff A
|-------------------------------------------|
|-------------------------------------------|
|-------------------------------------------|Gtr
|-----------------------------5-5-5-6-6-3-3-|I&II
|-------------------------------------------|
|-1p0-0-0-1p0-0-1p0-0-1p0-0---3-3-3-4-4-1-1-|
      . .     .     .     .

 Continuation of Riff A
|------------------------------------------|
|------------------------------------------|
|------------------------------------------|Gtr
|----------------------------5-5-5-6-6-5-5-|I&II
|------------------------------------------|
|-1p0-0-0-1p0-0-1p0-0-1p0-0--3-3-3-4-4-3-3-|
      . .     .     .     .

Continuation of Riff A
|-------------------------------------------|
|-------------------------------------------|
|-------------------------------------------|Gtr
|-----------------------------5-5-5-6-6-3-3-|I&II
|-------------------------------------------|
|-1p0-0-0-1p0-0-1p0-0-1p0-0---3-3-3-4-4-1-1-|
      . .     .     .     .

Continuation of Riff A
|-------------------------------------------|
|-----------------------------0-0-0-1-1-3-3-|
|-----------------------------0-0-0-1-1-3-3-|Gtr
|-------------------------------------------| I
|-------------------------------------------|
|-1p0-0-0-1p0-0-1p0-0-1p0-0-----------------|
|     .  .      .   .     .                 |
|                                           |
|-------------------------------------------|
|-------------------------------------------|
|-------------------------------------------|Gtr
|-------------------------------------------|II
|-----------------------------2-2-2-3-3-5-5-|
|-1p0-0-0-1p0-0-1p0-0-1p0-0---3-3-3-4-4-6-6-|
      . .     .     .     .

Play Riff A twice

Riff B
|------Play this bar twice--------|---------------------------------|
|---------------------------------|---------------------------------|
|---------------------------------|---------------------------------|Gtr
|-------------------------------8-|-------------------------------8-|I&II
|-7-----8---6---7-----7---8-------|-7-----8---6---7-----7---8-------|
|---0-0---0---0---0-0---0---0-6---|-7-0-0-8-0-6-0-7-0-0-7-0-8-0-6---|
    . .   .   .   . .   .   .         . .   .   .   . .   .   .

 Continuation of Riff B
|---------------------------------|
|---------------------------------|
|---------------------------------|Gtr
|---------------------------------|I&II
|-7-----8---6---7---3-3-2-2-1-1-0-|
|-7-0-0-8-0-6-0-7-0-3-3-2-2-1-1-0-|
    . .   .   .   .

Play Riff B once

 Riff C
|--------------------0--0--0--0--0--0----|
|--------------------5/-6--5--5/-4--4/-1-|
|----------------------------------------|Gtr
|-2-2-2-2-2-2-2-2-2----------------------|I&II
|-2-2-2-2-2-2-2-2-2----------------------|
|-0-0-0-0-0-0-0-0-0----------------------|
  . . . . . . . . .

 Continuation of Riff C
|--------------------0--0--0--0--0--0-|
|--------------------5/-6--5--5/-6--6-|
|-------------------------------------|Gtr
|-3-3-3-3-3-3-3-3-3-------------------|I&II
|-3-3-3-3-3-3-3-3-3-------------------|
|-1-1-1-1-1-1-1-1-1-------------------|
  . . . . . . . . .

Play Riff C 4 times(Verse 1)

Fill A
|----------------------|
|----------------------|
|----------------------|Gtr
|-5---4---4---3---3----|I&II
|-3---2---2---1---1--0-|
|-3---2---2---1---1--0-|

Play Fill A once(chorus fill)

Play Riff A once(chorus)
Play Fill A once(chorus fill)

LEAD(Jeff Loomis)
|-(0)----(0)-------------(0)----(0)--------------------------------|
|--5~~----6~~~~~~~--------4~~----5~~~~~~~-------(0)----(0)---------|
|------------------------------------------------3~~----4~~~~~~~~~-|Gtr
|------------------------------------------------------------------| I
|------------------------------------------------------------------|
|------------------------------------------------------------------|

|-(0)----(0)-----------------------------------------------------------|
|--4~~----5~~~~~~~~-------(0)----(0)--------------(0)---(0)-(0)--------|
|--------------------------3~~----4~~~~~~~~--------4-(4)-----5~~~~~~~~-|Gtr
|----------------------------------------------------------------------| I
|----------------------------------------------------------------------|
|----------------------------------------------------------------------|

Riff B.2(Played during Jeff’s lead)
|-----------------------------------|-------------------|---------------|
|--------Play this bar 3 times------|-------------------|---------------|
|-----------------------------------|-------------------|---------------|Gtr
|---------------------------------8-|-------------------|---------------|II
|--7-----8---6---7-----7---8--------|-7-----8---6---7---|---------------|
|----0-0---0---0---0-0---0---0-6----|---0-0---0---0---0-|-3-3-2-2-1-1-0-|
     . .   .   .   . .   .   .          . .   .   .   .

Play Riff B.2+Lead once

Play Riff C 4 times(verse 2)
Play Fill A once(chorus fill)
Play Riff A once(chorus)
Play Fill A once(chorus fill)

Riff D(acoustic)
|-5---5-5---5-5---5---5--5-5-|-4---4-4---4-4---4---4--4-4-|
|-3---3-3---3-3---3---3--3-3-|-3---3-3---3-3---3---3--3-3-|
|-2---2-2---2-2---2---2--2-2-|-1---1-1---1-1---1---1--1-1-|Gtr
|-0---0-0---0-0---0---0--0-0-|-0---0-0---0-0---0---0--0-0-| I
|----------------------------|----------------------------|
|----------------------------|----------------------------|

Continuation of Riff D
|--0---0-0---0-0---0---0--0-0-|-0---0--0---0--0---0---0--0-0-|
|--0---0-0---0-0---0---0--0-0-|-0---0--0---0--0---0---0--0-0-|
|--0---0-0---0-0---0---0--0-0-|-3---3--3---3--3---3---3--3-3-|Gtr
|--2---2-2---2-2---2---2--2-2-|-2---2--2---2--2---2---2--2-2-| I
|--2---2-2---2-2---2---2--2-2-|-1---1--1---1--1---1---1--1-1-|
|--0---0-0---0-0---0---0--0-0-|------------------------------|

Riff E(acoustic)
|-----------(5)----------|-----------(4)----------|
|--------------(3)-------|--------------(3)-------|
|--------(2)------(2)----|--------(1)------(1)----|Gtr
|-(0)----------------(0)-|-(0)----------------(0)-|II
|------------------------|------------------------|
|------------------------|------------------------|

Continuation of Riff E
|-----------(0)----------|-----------------(0)-|
|--------------(0)-------|--------------(0)----|
|-----------------(0)----|-----------(3)-------|Gtr
|--------(2)---------(2)-|--------(2)----------|II
|------------------------|---------------------|
|-(0)--------------------|-(0)-----------------|

Play Riff D once
Play Riff D+E 3 times

Fill B
|---------------------------------|
|---------------------------------|
|---------------------------------|Gtr
|---------------------------------|I&II
|---------------------------------|
|-0-0-0-0-0-0-0-0-0-0-0-0-0-0-0-0-|
  . . . . . . . . . . . . . . . .

 Continuation of Fill B
|------------------------------------------------------------------|
|------------------------------------------------------------------|
|-7----------------------7--------------------9------------------9-|Gtr
|-7----------------------6--------------------9------------------8-|I&II
|-5----------------------5--------------------7------------------7-|
|------------------------------------------------------------------|

Play Fill B once(Fill B starts on the two final bars of Riff D/E)

SOLO(Tim Calvert)
|-------------------------21hb~-21hb~-21~-------------------------------------|
|-------------------18p17-----------------------------------------------------|
|----------------14-----------------------/19-19-19-----------19----19-19--19-|
|-------12-14-15------------------------------------19-19-19--18----18-18--18-|
|-12h13-----------------------------------------------------------------------|
|-----------------------------------------------------------------------------|

|------------------------------------------------------------------------------|
|------------------------17--17~---17h20p17~---17~-/--17--19-20-19h20p19-17-19-|
|------------------16-16-------------------------------------------------------|
|------------17-17-------------------------------------------------------------|
|-19-/-19-19-------------------------------------------------------------------|
|------------------------------------------------------------------------------|

|-18----------15---------12------15----------12----|
|----17----17----17---------11------14----14----14-|
|-------15----------15/9-------9-------12----------|Gtr
|--------------------------------------------------|II
|--------------------------------------------------|
|--------------------------------------------------|

|------------17fb~~~~~~~~~~~(17)~~~~~~~~~--16~-----------------|
|--14fb~~---------------------------------------15fb~~~~~~~~~~-|
|--------------------------------------------------------------|Gtr
|--------------------------------------------------------------|II
|--------------------------------------------------------------|
|--------------------------------------------------------------|

|------------------------------------|
|-(15)~~~~~~~~~--19~~~~(19)~~~(19)~~-|
|------------------------------------|Gtr
|------------------------------------|II
|------------------------------------|
|------------------------------------|

 Reverse arpeggios
|-18p15---------------15p12--------------12p9------------9p6----------|
|------17------------------14----------------11-------------8---------|
|--------18p15--15/12--------15p12--12/9-------12p9--9/6-----9p6--6h9/|Gtr
|-------------17------------------14---------------11-----------8-----|II
|---------------------------------------------------------------------|
|---------------------------------------------------------------------|

Riff F(played during Tim’s solo)
|-------------------------------------|-------------------------------------|
|-------------------------------------|-------------------------------------|
|-----------------7-----7---7-7-7-7-7-|-----------------7-----7---7-7-7-7-7-|Gtr
|-----------------7-----7---7-7-7-7-7-|-----------------6-----6---6-6-6-6-6-| I
|-5-5-5-5-5-5-5-5-5-5-5-5---5-5-5-5-5-|-5-5-5-5-5-5-5-5-5-5-5-5---5-5-5-5-5-|
|-------------------------------------|-------------------------------------|
  . . . . . . . .   . .                 . . . . . . . .   . .

Continuation of Riff F
|-------------------------------------|-------------------------------------|
|-------------------------------------|-------------------------------------|
|-------------------------------------|-----------------9-----9---9-9-9-9-9-|Gtr
|-----------------2-----2---2-2-2-2-2-|-----------------8-----8---8-8-8-8-8-| I
|-----------------2-----2---2-2-2-2-2-|-----------------7-----7---7-7-7-7-7-|
|-0-0-0-0-0-0-0-0-0-0-0-0---0-0-0-0-0-|-0-0-0-0-0-0-0-0---0-0---------------|
  . . . . . . . .   . .                 . . . . . . . .   . .

Continuation of Riff F
|-------------------------------------|-------------------------|
|-------------------------------------|-------------------------|
|-----------------7-----7---7-7-7-7-7-|-----------------7-----7-|Gtr
|-----------------7-----7---7-7-7-7-7-|-----------------6-----6-| I
|-5-5-5-5-5-5-5-5-5-5-5-5---5-5-5-5-5-|-5-5-5-5-5-5-5-5-5-5-5-5-|
|-------------------------------------|-------------------------|
  . . . . . . . .   . .                 . . . . . . . .   . .

Continuation of Riff F
|-----------------------------------------------------------------------|
|-----------------------------------------------------------------------|
|--9-----------------------9--------------------------------------------|Gtr
|--9-----------------------8-----------------------5---4---4---3---3----| I
|--7-----------------------7-----------------------3---2---2---1---1--0-|
|--------------------------------------------------3---2---2---1---1--0-|

Play Riff F once

SOLO(Jeff Loomis)
|--------------------------------------------------------------------|
|--------------------------------------------------------------------|
|--------------------------------------------------------------------|Gtr
|--------------------------------------------------------------------| I
|--8~~~~~~~-----7---8--8--10--8--7--8--7--5--7--6--6—6hb-6hb-6hb--7~-|
|--------------------------------------------------------------------|

|--12~---------------------------------------------|
|---------12~----13~----11~----12~-----------------|
|-------------------------------------11~----11hb~-|Gtr
|--------------------------------------------------| I
|--------------------------------------------------|
|--------------------------------------------------|

Fast picking
|----------------------------------------------------------|
|-12-13-15-13-12----12-------------------------------------|
|----------------13----13----------------------------------|Gtr
|-------------------------15-12-15p12----12----------------| I
|-------------------------------------13----15-14-12-15p14-|
|----------------------------------------------------------|

Riff B.3(Played during Jeff’s solo)
|-----------------------------------|-------------------|---------------|
|--------Play this bar 3 times------|-------------------|---------------|
|-----------------------------------|-------------------|---------------|Gtr
|---------------------------------8-|-------------------|---------------|II
|--7-----8---6---7-----7---8--------|-7-----8---6---7---|---------------|
|----0-0---0---0---0-0---0---0-6----|---0-0---0---0---0-|-3-3-2-2-1-1-0-|
     . .   .   .   . .   .   .          . .   .   .   .

Continuation of Riff B.3
|---------------------------------|
|---------------------------------|
|---------------------------------|Gtr
|-4-----5-----4-----5-----4---5---|I&II
|-2-----3-----2-----3-----2---3---|
|-2-0-0-3-0-0-2-0-0-3-0-0-2-0-3-0-|
    . .   . .   . .   . .   .   .

Play Riff B.3 once

Play Riff C 4 times(Verse 3)
Play Riff A twice(Chorus x2)
Play Fill A twice

End With
|-------------------------------|
|-------------------------------|
|-5-----4-----4-----3-----3---2-|Gtr
|-5-----4-----4-----3-----3---2-|I&II
|-33333-22222-22222-11111-111-0-|
|-------------------------------|
   ....  ....  ....  ....  ..

"welcome to the fall... of one man’s sanity..."

END

  Visit MetalTabs.com for more metal tablature


Suggest correction
Give kudos to tab author, rate the tab!
1 2 3 4 5
comments
print report bad tab
guest
You may want to rate the tab now too:
select rating
Please do not post tabs as comments. Select "correction" instead!