Oops, an error
Loading. Please wait.

Born Bass Tab

version 1
version 1

Whole song

Interactive

1,133 views 1 this week
no commentswrite comment
1 2 3 4 5
please rate
add to favorites
launch autoscroll
font size
0
reset
guitar tuner
Autoscroll
slow
fast
+/-
esc
set tempo
stop
Help us to improve Ultimate-Guitar.com Take our survey!
×
Author
Artist: Nevermore
Song: Born
Tuning: Bb Eb Ab Db

Intro / Riff 1 x2
|---------------------------------------------------------------|
|---------------------------------------------------------------|
|-------------------------------------------------------------5-|
|-2h4-4-4-5p4-4-4-7p4-4-4-5p4-4-4-2h4-4-4-5p4-4-4-7p4-4-4-5p4---|

|-------------------------------------------------|
|-------------------------------------------------|
|-----------------------------------------------5-|
|-2-4-4-5-4-4-7-4-4-5-4-4-2-4-4-5-4-4-7-4-4-5-4---|
                    
|-----------------------------------------------------------------|
|-0-0-0-0---------------------------------------------------------|
|---------4-4-4-4-1-1-1-1-0-0-0-0-4-4-4-4-3-3-3-3-0-0-0-0---------|
|---------------------------------------------------------4-4-4-4-|

Break
|---|---|---|---|---|---|---|---|
|---|---|---|---|---|---|---|---|
|---|---|---|---|---|---|-7~|10~|
|-0-|-0-|-0-|-0-|-0-|-0-|---|---|

Verse x4
|--------------------------------------------|
|---------------------3----2----1------------|
|-2----1----5----4------------------5----4---|
|---00---00---00---00---00---00---0---00---0-|

Pre-Chorus x2
|-------------------------|-----------------------------|
|-------------------------|-----------------------------|
|-------------------2-2-2-|-----------------------------|
|-0h4-4-4-4-4-0h5-5-------|-0h4-4-4-4-4-0h3-3-33-333-33-|
       
Interlude x2
|---------------------------------------|
|---------------------------------------|
|---------------------------------------|
|-0-0-0---0---0---0---0-0-0---0---0---0-|
  . . .   .   .   .   . . .   .   .   . 

Riff 1 x2
|---------------------------------------------------------------|
|---------------------------------------------------------------|
|-------------------------------------------------------------5-|
|-2h4-4-4-5p4-4-4-7p4-4-4-5p4-4-4-2h4-4-4-5p4-4-4-7p4-4-4-5p4---|

|-------------------------------------------------|
|-------------------------------------------------|
|-----------------------------------------------5-|
|-2-4-4-5-4-4-7-4-4-5-4-4-2-4-4-5-4-4-7-4-4-5-4---|
                    
|-----------------------------------------------------------------|
|-0-0-0-0---------------------------------------------------------|
|---------4-4-4-4-1-1-1-1-0-0-0-0-4-4-4-4-3-3-3-3-0-0-0-0---------|
|---------------------------------------------------------4-4-4-4-|

Pre-Chorus x2
|-------------------------|-----------------------------|
|-------------------------|-----------------------------|
|-------------------2-2-2-|-----------------------------|
|-0h4-4-4-4-4-0h5-5-------|-0h4-4-4-4-4-0h3-3-33-333-33-|

Chorus
|-------------------------------------------------------------------------|
|-0------0------3---------------------3------0------2------3-----2--------|
|-----------------------1------1----------------------------------------0-|
|-------------------------------------------------------------------------|

Interlude
|---------------------------------------|
|---------------------------------------|
|---------------------------------------|
|-0-0-0---0---0---0---0-0-0---0---0---0-|
  . . .   .   .   .   . . .   .   .   . 

Riff 1 
|---------------------------------------------------------------|
|---------------------------------------------------------------|
|-------------------------------------------------------------5-|
|-2h4-4-4-5p4-4-4-7p4-4-4-5p4-4-4-2h4-4-4-5p4-4-4-7p4-4-4-5p4---|

|-------------------------------------------------|
|-------------------------------------------------|
|-----------------------------------------------5-|
|-2-4-4-5-4-4-7-4-4-5-4-4-2-4-4-5-4-4-7-4-4-5-4---|
                    
|-----------------------------------------------------------------|
|-0-0-0-0---------------------------------------------------------|
|---------4-4-4-4-1-1-1-1-0-0-0-0-4-4-4-4-3-3-3-3-0-0-0-0---------|
|---------------------------------------------------------4-4-4-4-|

Chorus
|-------------------------------------------------------------------------|
|-0------0------3---------------------3------0------2------3-----2--------|
|-----------------------1------1----------------------------------------0-|
|-------------------------------------------------------------------------|

Solo Backing
|----------------------------------------------------------------|
|-----------------0---0---0------------------------------0--0--0-|
|-----0---0----------------------------0-0-0-0-0-0---------------|
|-0-----------1---------------000-00-----------------1-----------|

|---------------------------------------------------------------|
|---------------------------------------------------------------|
|---------------------------------------------------------------|
|-0-0-0-0-0-0-0-0-0-0-0------0-0-0-0-0-0-0-0-0-0-0--0-0-0-0-0-0-|
  . . . . . . . . . . .      . . . . . . . . . . .  . . . . . .

|----------------------------------------------------------------------------|
|----------------------------------------------------------------------------|
|----------------------------------------------------------------------------|
|-0-0-0-0---0-0--0--0--0--0-0---0-0--0--0----0--0--0--0--0--0-0--0-0-0-0-0-0-|
  . . . .   . .  .  .  .  . .   . .  .  .    .  .  .  .  .  . .

|-----------------------------------------------------------------|
|-----------------------------------------------------------------|
|-----------------------------------------------------------------|
|-0-0-0-0---0-0-0-0-0-0-0---0-0-0-0---0-0-0-0-0-0-0---0-0-0-0-0-0-|
  . . . .   . . . . . . .   . . . .   .

|----------------------------------------------------------------|
|----------------------------------------------------------------|
|----------------------------------------------------------------|
|-0-0-0-0---0-0-0-0-0-0-0---0-0-0-0---0-0-0-0-0-0-0--0-0-0-0-0-0-|
  . . . .   . . . . . . .   . . . .   . . . . .

|-------------------|
|-------------------|
|-------------------|
|-0---1---4---5---1-|

|---|---|---|---|---|---|---|---|
|---|---|---|---|---|---|---|---|
|---|---|---|---|---|---|-7~|10~|
|-0-|-0-|-0-|-0-|-0-|-0-|---|---|

Verse x4
|--------------------------------------------|
|---------------------3----2----1------------|
|-2----1----5----4------------------5----4---|
|---00---00---00---00---00---00---0---00---0-|

Pre-Chorus x2
|-------------------------|-----------------------------|
|-------------------------|-----------------------------|
|-------------------2-2-2-|-----------------------------|
|-0h4-4-4-4-4-0h5-5-------|-0h4-4-4-4-4-0h3-3-33-333-33-|

Chorus
|-------------------------------------------------------------------------|
|-0------0------3---------------------3------0------2------3-----2--------|
|-----------------------1------1----------------------------------------0-|
|-------------------------------------------------------------------------|

Outro
|---------------------------------------------------------------|
|---------------------------------------------------------------|
|-------------------------------------------------------------5-|
|-2h4-4-4-5p4-4-4-7p4-4-4-5p4-4-4-2h4-4-4-5p4-4-4-7p4-4-4-5p4---|

|-------------------------------------------------|
|-------------------------------------------------|
|-----------------------------------------------5-|
|-2-4-4-5-4-4-7-4-4-5-4-4-2-4-4-5-4-4-7-4-4-5-4---|
                    
|-----------------------------------------------------------------|
|-0-0-0-0---------------------------------------------------------|
|---------4-4-4-4-1-1-1-1-0-0-0-0-4-4-4-4-3-3-3-3-0-0-0-0---------|
|---------------------------------------------------------4-4-4-4-|

|---------------------------------------------------------------|
|---------------------------------------------------------------|
|-------------------------------------------------------------5-|
|-2h4-4-4-5p4-4-4-7p4-4-4-5p4-4-4-2h4-4-4-5p4-4-4-7p4-4-4-5p4---|

|-----------------------------------------|
|-----------------------------------------|
|-----------------------------------------|
|-2-4-4-5-4-4-7-4-4-5-4-4-5-4-3----3-2-1\-|
Suggest correction
Give kudos to tab author, rate the tab!
1 2 3 4 5
comments
print report bad tab
guest
You may want to rate the tab now too:
select rating
Please do not post tabs as comments. Select "correction" instead!