Oops, an error
Loading. Please wait.

Born Tab

version 1
version 1

Whole song

Interactive

22,192 views 12 this week
2 commentsread comments
1 2 3 4 5
1 last vote to show rating
add to favorites
launch autoscroll
font size
0
reset
how to read this tab
guitar tuner
×
Best way to learn
"Born"
Autoscroll
slow
fast
+/-
esc
set tempo
stop
Author
Difficulty
Band - Nevermore
Song - Born
Album - This Godless Endeavor (2005)
Tuning - Bb,Eb,Ab,Db,Gb,Bb,Eb

[Verse A] - Guitars 1 & 2
Eb|---------------------------------------------------------------|
Bb|---------------------------------------------------------------|
Gb|---------------------------------------------------------------|
Db|---------------------------------------------------------------|
Ab|-------------------------------------------------------------7-|
Eb|-------------------------------------------------------------5-|
Bb|-2h4-4-4-5p4-4-4-7p4-4-4-5p4-4-4-2h4-4-4-5p4-4-4-7p4-4-4-5p4---|

Eb|-------------------------------------------------|
Bb|-------------------------------------------------|
Gb|-------------------------------------------------|
Db|-------------------------------------------------|
Ab|-----------------------------------------------7-|
Eb|-4-6-6-7-6-6-9-6-6-7-6-6-4-6-6-7-6-6-9-6-6-7-6-5-|
Bb|-2-4-4-5-4-4-7-4-4-5-4-4-2-4-4-5-4-4-7-4-4-5-4---|
                          . . . .

Guitar 1
Eb|-----------------------------------------------------------------------------|
Bb|-----------------------------------------------------------------------------|
Gb|-----------------------------------------------------------------------------|
Db|-11-11-11-11-10-10-10-10-7-7-7-7-6-6-6-6-10-10-10-10-9-9-9-9-6-6-6-6-5-5-5-5-|
Ab|-----------------------------------------------------------------------------|
Eb|-9--9--9--9--8--8--8--8--5-5-5-5-4-4-4-4-8--8--8--8--7-7-7-7-4-4-4-4-3-3-3-3-|
Bb|-----------------------------------------------------------------------------|

Guitar 2
Eb|---------------------------------------------------------------------------------|
Bb|---------------------------------------------------------------------------------|
Gb|---------------------------------------------------------------------------------|
Db|---------------------------------------------------------------------------------|
Ab|-12-12-12-12-11-11-11-11-8-8-8-8-7-7-7-7-11-11-11-11-10-10-10-10-7-7-7-7-6-6-6-6-|
Eb|---------------------------------------------------------------------------------|
Bb|-10-10-10-10-9--9--9--9--6-6-6-6-5-5-5-5-9--9--9--9--8--8--8--8--5-5-5-5-4-4-4-4-|

[Verse B]
Guitar 1
Eb|-----------------------------------------------------------------|
Bb|-----------------------------------------------------------------|
Gb|-----------------------------------------------------------------|
Db|-----------------------------------------------------------------|
Ab|-----------------------------------------------------------------|
Eb|-2-------1-------5-------4-------8-------7-------6---5-------4---|
Bb|---2-1-2---2-1-0---5-4-5---5-4-0---8-7-8---8-7-0---5---4-0-3---3-|

Guitar 2
Eb|-----------------------------------|
Bb|-----------------------------------|
Gb|-----------------------------------|
Db|-----------------------------------|
Ab|-2---------------------------------|
Eb|-2---------------------------------|
Bb|-0---------------------------------|

Eb|-----------------------------------------------------------------|
Bb|-----------------------------------------------------------------|
Gb|-----------------------------------------------------------------|
Db|-----------------------------------------------------------------|
Ab|-----------------------------------------------------------------|
Eb|-2-------1-------5-------4-------8-------7-------6---5-------4---|
Bb|---2-1-2---2-1-0---5-4-5---5-4-0---8-7-8---8-7-0---5---4-0-3---3-|

Eb|-----------------------------------|
Bb|-----------------------------------|
Gb|-----------------------------------|
Db|-----------------------------------|
Ab|-2---------------------------------|
Eb|-2---------------------------------|
Bb|-0---------------------------------|

Eb|-------------------------------------------------|
Bb|-------------------------------------------------|
Gb|-------------------------------------------------|
Db|-------------------------------------------------|
Ab|-------------------------------------------------|
Eb|-2-------1-------5-------4-------10~---------13~-|
Bb|---2-1-2---2-1-0---5-4-5---5-4-0-----------------|

Eb|-------------------------------------------------|
Bb|-------------------------------------------------|
Gb|-------------------------------------------------|
Db|-------------------------------------------------|
Ab|-2-------2-------2-------2-----------------------|
Eb|-2-------2-------2-------2--------7~---------10~-|
Bb|-0-------0-------0-------0-----------------------|

Guitars 1 & 2
Eb|-----------------------------------------------------------------|
Bb|-----------------------------------------------------------------|
Gb|-----------------------------------------------------------------|
Db|-----------------------------------------------------------------|
Ab|-----------------------------------------------------------------|
Eb|-2-------1-------5-------4-------8-------7-------6---5-------4---|
Bb|---2-1-2---2-1-0---5-4-5---5-4-0---8-7-8---8-7-0---5---4-0-3---3-|

Guitar 1
Eb|------------------------------------------------------------------------|
Bb|------------------------------------------------------------------------|
Gb|------------------------------------------------------------------------|
Db|------------------------------------------------------------------------|
Ab|------------------------------------------------------------------------|
Eb|-5-------4-------8-------7-------11----------10---------9---8-------7---|
Bb|---5-4-5---5-4-0---8-7-8---8-7-0----11-10-11----11-10-0---8---7-0-6---6-|

Guitar 2
Eb|-----------------------------------------------------------------|
Bb|-----------------------------------------------------------------|
Gb|-----------------------------------------------------------------|
Db|-----------------------------------------------------------------|
Ab|-----------------------------------------------------------------|
Eb|-2-------1-------5-------4-------8-------7-------6---5-------4---|
Bb|---2-1-2---2-1-0---5-4-5---5-4-0---8-7-8---8-7-6---5---4-0-3---3-|

[Pre-Chorus]
Guitars 1 & 2
Eb|-----------------------------------------------------------------|
Bb|-----------------------------------------------------------------|
Gb|-----------------------------------------------------------------|
Db|-----------------------------------------------------------------|
Ab|-----6-----6-----6-----6-----6p4-----7-----7-----7-----7-----7p6-|
Eb|-------4-----4-----4-----4-------------4-----4-----4-----4-------|
Bb|-0h4-----4-----4-----4-----4-----0h5-----5-----7-----7-----7-----|
          . .   . .   . .   . .           . .   . .   . .   . .

Eb|-----------------------------------------------------------------|
Bb|-----------------------------------------------------------------|
Gb|-----------------------------------------------------------------|
Db|-----------------------------------------------------------------|
Ab|-----6-----6-----6-----6-----6p5-----5-----5-------5-------5-----|
Eb|-------4-----4-----4-----4-------------4-----4-------------------|
Bb|-0h4-----4-----4-----4-----4-----0h3-----3-----3-3---3-3-3---3-3-|
          . .   . .   . .   . .           . .   . . .   . . .   . .

Eb|-----------------------------------------------------------------|
Bb|-----------------------------------------------------------------|
Gb|-----------------------------------------------------------------|
Db|-----------------------------------------------------------------|
Ab|-----6-----6-----6-----6-----6p5-----5-----5-----5-------5-------|
Eb|-------4-----4-----4-----4-------------4-----4-------------------|
Bb|-0h4-----4-----4-----4-----4-----0h3-----3-----3---3-3-3---3-3-3-|
          . .   . .   . .   . .           . .   . .   . . .   . . .

[Interlude]
Guitars 1 & 2
Eb|-----------------------------------------------------------------------------|
Bb|-----------------------------------------------------------------------------|
Gb|--------------------------------------------------------12----12----11----11-|
Db|---------10-9-7-9-7h9p7---7------------------10-9-7-9-7----10----10----10----|
Ab|-----7-9----------------8---8-7----------7-9---------------------------------|
Eb|-7-8----------------------------10-8-7-8-------------------------------------|
Bb|-----------------------------------------------------------------------------|

Guitar 3
Eb|----------------------------------------------------------------------------|
Bb|----------------------------------------------------------------------------|
Gb|----------------------------------------------------------------------------|
Db|----------------------------------------------------------------------------|
Ab|----------------------------------------------------------------------------|
Eb|-2-2-2------------------2-------2----2---2-2-2-------------2-----2--2--2--2-|
Bb|-0-0-0------------------0-------0----0---0-0-0-------------0-----0--0--0--0-|
    . . .                  .       .    .   . . .             .     .  .  .  .

Eb|-----------------------------------------------------------------------------|
Bb|--------------------------------------------------------13----13----12----12-|
Gb|-----------------------------------------------------------10----10----10----|
Db|---------10-9-7-9-7h9p7---7------------------10-9-7-9-7----------------------|
Ab|-----7-9----------------8---8-7----------7-9---------------------------------|
Eb|-7-8----------------------------10-8-7-8-------------------------------------|
Bb|-----------------------------------------------------------------------------|

Eb|----------------------------------------------------------------------------|
Bb|----------------------------------------------------------------------------|
Gb|----------------------------------------------------------------------------|
Db|----------------------------------------------------------------------------|
Ab|----------------------------------------------------------------------------|
Eb|-2-2-2------------------2-------2----2---2-2-2-------------2-----2--2--2--2-|
Bb|-0-0-0------------------0-------0----0---0-0-0-------------0-----0--0--0--0-|

Eb|-----------------------------------------------------------------------------|
Bb|-----------------------------------------------------------------------------|
Gb|--------------------------------------------------------12----12----11----11-|
Db|---------10-9-7-9-7h9p7---7------------------10-9-7-9-7----10----10----10----|
Ab|-----7-9----------------8---8-7----------7-9---------------------------------|
Eb|-7-8----------------------------10-8-7-8-------------------------------------|
Bb|-----------------------------------------------------------------------------|

Eb|----------------------------------------------------------------------------|
Bb|----------------------------------------------------------------------------|
Gb|----------------------------------------------------------------------------|
Db|----------------------------------------------------------------------------|
Ab|----------------------------------------------------------------------------|
Eb|-2-2-2------------------2-------2----2---2-2-2-------------2-----2--2--2--2-|
Bb|-0-0-0------------------0-------0----0---0-0-0-------------0-----0--0--0--0-|
    . . .                  .       .    .   . . .             .     .  .  .  .

Guitar 1
Eb|-----------------------------------------------------------|
Bb|-----------------------------------------------------------|
Gb|---------------------------------------------12-11-9-12-11-|
Db|---------10-9-7-9-7h9p7---7--------------------------------|
Ab|-----7-9----------------8---8-7----------7-9---------------|
Eb|-7-8----------------------------10-8-7-8-------------------|
Bb|-----------------------------------------------------------|

Guitar 2
Eb|---------------------------------------------------------|
Bb|---------------------------------------------------------|
Gb|---------------------------------------------------------|
Db|---------10-9-7-9-7h9p7---7------------------10-9-7-10-9-|
Ab|-----7-9----------------8---8-7----------7-9-------------|
Eb|-7-8----------------------------10-8-7-8-----------------|
Bb|---------------------------------------------------------|

Guitar 3
Eb|-----------------------------------------------|
Bb|-----------------------------------------------|
Gb|-----------------------------------------------|
Db|-----------------------------------------------|
Ab|-----------------------------------------------|
Eb|-2-2-2------------------2-------2----2---2-2-2-|
Bb|-0-0-0------------------0-------0----0---0-0-0-|
    . . .                  .       .    .   . . .

[Verse A]
Guitars 1 & 2
Eb|---------------------------------------------------------------|
Bb|---------------------------------------------------------------|
Gb|---------------------------------------------------------------|
Db|---------------------------------------------------------------|
Ab|-------------------------------------------------------------7-|
Eb|-------------------------------------------------------------5-|
Bb|-2h4-4-4-5p4-4-4-7p4-4-4-5p4-4-4-2h4-4-4-5p4-4-4-7p4-4-4-5p4---|

Eb|-------------------------------------------------|
Bb|-------------------------------------------------|
Gb|-------------------------------------------------|
Db|-------------------------------------------------|
Ab|-----------------------------------------------7-|
Eb|-4-6-6-7-6-6-9-6-6-7-6-6-4-6-6-7-6-6-9-6-6-7-6-5-|
Bb|-2-4-4-5-4-4-7-4-4-5-4-4-2-4-4-5-4-4-7-4-4-5-4---|
                            . . . .

Guitar 1
Eb|-----------------------------------------------------------------------------|
Bb|-----------------------------------------------------------------------------|
Gb|-----------------------------------------------------------------------------|
Db|-11-11-11-11-10-10-10-10-7-7-7-7-6-6-6-6-10-10-10-10-9-9-9-9-6-6-6-6-5-5-5-5-|
Ab|-----------------------------------------------------------------------------|
Eb|-9--9--9--9--8--8--8--8--5-5-5-5-4-4-4-4-8--8--8--8--7-7-7-7-4-4-4-4-3-3-3-3-|
Bb|-----------------------------------------------------------------------------|

Guitar 2
Eb|---------------------------------------------------------------------------------|
Bb|---------------------------------------------------------------------------------|
Gb|---------------------------------------------------------------------------------|
Db|---------------------------------------------------------------------------------|
Ab|-12-12-12-12-11-11-11-11-8-8-8-8-7-7-7-7-11-11-11-11-10-10-10-10-7-7-7-7-6-6-6-6-|
Eb|---------------------------------------------------------------------------------|
Bb|-10-10-10-10-9--9--9--9--6-6-6-6-5-5-5-5-9--9--9--9--8--8--8--8--5-5-5-5-4-4-4-4-|

Guitars 1 & 2
Eb|---------------------------------------------------------------|
Bb|---------------------------------------------------------------|
Gb|---------------------------------------------------------------|
Db|---------------------------------------------------------------|
Ab|-------------------------------------------------------------7-|
Eb|-------------------------------------------------------------5-|
Bb|-2h4-4-4-5p4-4-4-7p4-4-4-5p4-4-4-2h4-4-4-5p4-4-4-7p4-4-4-5p4---|

Eb|----------------------------------------|
Bb|----------------------------------------|
Gb|----------------------------------------|
Db|----------------------------------------|
Ab|----------------------------------------|
Eb|-4-6-6-7-6-6-9-6-6-7-6-6-----5--------3-|
Bb|-2-4-4-5-4-4-7-4-4-5-4-4-5-4-3----3-2-1-|
                          . .      . .
[Chorus]
Guitars 1 & 2 w/palm mute
Eb|-------------------------------------------------------------------------------------------------|
Bb|-------------------------------------------------------------------------------------------------|
Gb|-------------14-------12-------------------------------------14-------12-------------------------|
Db|-------14-------14-------14----------------------------14-------14-------14----------------------|
Ab|-12-12----12-------12-------12-12-15-14-12-------12-12----12-------12-------12-12-15-14-12-------|
Eb|-------------------------------------------15-13-------------------------------------------15-13-|
Bb|-------------------------------------------------------------------------------------------------|

Guitar 3
Eb|---------------------------------------------------------------------------|
Bb|---------------------------------------------------------------------------|
Gb|-------------------------------------------------------------------------5-|
Db|-7------------------------------------------------7------------------------|
Ab|-------------------------------------------------------------------------3-|
Eb|-5------------------------------------------------5------------------------|
Bb|---------------------------------------------------------------------------|

Eb|--------------------------------------------------------------------15----------------|
Bb|-----------------------------------------------------------13----------13----13-------|
Gb|----------12------10-------------------------------12---------12----------12----12----|
Db|-----10------10------10-----------------------10------10---------10----------------15-|
Ab|-8-8----8-------8-------8-8-12-10-8-------8-8----8-------8----------------------------|
Eb|------------------------------------12-10---------------------------------------------|
Bb|--------------------------------------------------------------------------------------|
    . . .  . .  .  .  .  . . .  .  . . .  .  . .  . . .  .  .

Eb|-------------------------------------------------------------|
Bb|-------------------------------------------------------------|
Gb|-----------------------------------------------------------5-|
Db|-3---------------------------------------3-------------------|
Ab|-----------------------------------------------------------3-|
Eb|-1---------------------------------------1-------------------|
Bb|-------------------------------------------------------------|

All palm muted
Eb|-------------------------------------------------------------------------------------------------|
Bb|-------------------------------------------------------------------------------------------------|
Gb|-------------------------------------------------------------------------------------------------|
Db|-------------14-------12-------------------------------------14-------12-------------------------|
Ab|-------12-------12-------12----------------------------12-------12-------12----------------------|
Eb|-10-10----10-------10-------10-10-13-12-10-------10-10----10-------10-------10-10-13-12-10-------|
Bb|-------------------------------------------13-12-------------------------------------------13-12-|

Eb|----------------------------------------------------------------------------|
Bb|----------------------------------------------------------------------------|
Gb|-7------------------------------------------------9----------------------10-|
Db|----------------------------------------------------------------------------|
Ab|-5------------------------------------------------7----------------------8--|
Eb|----------------------------------------------------------------------------|
Bb|----------------------------------------------------------------------------|

Eb|-------------------------------------------------------------------------------------------------|
Bb|-------------------------------------------------------------------------------18----------------|
Gb|----------------------------------------------------------------------16----------16----16-------|
Db|-------------15-------14-------------------------------------15----------15----------15----15-14-|
Ab|-------14-------14-------14----------------------------14-------14----------14-------------------|
Eb|-12-12----12-------12-------12-12-15-13-12-------12-12----12-------12----------------------------|
Bb|-------------------------------------------15-13-------------------------------------------------|
    .  .  .  .  .  .  .  .  .  .  .  .  .  .  .  .  .  .  .  .  .  .  .

Eb|---------------------------------------------------|
Bb|---------------------------------------------------|
Gb|-4-------------------------------------------------|
Db|-------------------------------------------------2-|
Ab|-2-----------------------------------------------2-|
Eb|-------------------------------------------------0-|
Bb|---------------------------------------------------|

Lead - Loomis - Guitar 4
Eb|-19----19--19--19---19--19---19--19--19--19--19--19---19-19-|
Bb|-22b---22b-22b-22b--22b-22b--22b-22b-22b-22b-22b-22b--22-22-|
Gb|------------------------------------------------------------|
Db|------------------------------------------------------------|
Ab|------------------------------------------------------------|
Eb|------------------------------------------------------------|
Bb|------------------------------------------------------------|

Guitars 1 & 2
Eb|-------------------------------------------------0-------0-|
Bb|---------------0--------0------------------------0-------0-|
Gb|-----------------------------------------------------------|
Db|-----------------------------2-------------------2---------|
Ab|-2---------------------------2-------------------2---------|
Eb|-2---------------------------0-------------------0---------|
Bb|-0---------------------------------------------------------|

Eb|-19-19-19-19-19-19-19-19--------------------------------------------------------|
Bb|-22-22-22-22-22-22-22-22-20-20-19-19-19-20-22-20-22-20-19-20-19----19h20p19-----|
Gb|----------------------------------------------------------------21----------21~-|
Db|--------------------------------------------------------------------------------|
Ab|--------------------------------------------------------------------------------|
Eb|--------------------------------------------------------------------------------|
Bb|--------------------------------------------------------------------------------|

Eb|----------3-----------3-------------------------------------------------------|
Bb|----------3-----------3-------------------------------------------------------|
Gb|------------------------------------------------------------------------------|
Db|----------------------------------7----------------------7~-----------------7-|
Ab|-3--------------------------------7----------------------7~-----------------7-|
Eb|-3--------------------------------5----------------------5~-----------------5-|
Bb|-1----------------------------------------------------------------------------|

Eb|------------------------22-------22-20----22-20-19---------------------------|
Bb|---------------------------------------------------22-19-17-16-17-17-16-17-16|
Gb|-----------------------------------------------------------------------------|
Db|-----------------------------------------------------------------------------|
Ab|-----------------------------------------------------------------------------|
Eb|-----------------------------------------------------------------------------|
Bb|-----------------------------------------------------------------------------|

Eb|-------------------------------------------------|
Bb|-------------------------------------------17h19-|
Gb|----16----------------------------16h17h19-------|
Db|-19----19-17-16----------16h17h19----------------|
Ab|----------------19-17-19-------------------------|
Eb|-------------------------------------------------|
Bb|-------------------------------------------------|

Eb|--------------------------------------------------------------------------------------|
Bb|--------------------------------------------------------------------------------------|
Gb|--------------------------------------------------------------------------------------|
Db|------------------------------------------------------------------------------------2-|
Ab|----------2-------------------------------------------2---2--------2----2-----2-----2-|
Eb|-2-2-2--2-2-------------------------------------------0---0--------0----0-----0-----0-|
Bb|-0-0-0--0-0---------------------------------------------------------------------------|
    . . .  .                                             .   .        .    .

Eb|-----------------------------------------19-20-22-22b---22b~-|
Bb|-19-20-19----19--------------------20-22---------------------|
Gb|----------21----21-19----19-21~------------------------------|
Db|----------------------20-------------------------------------|
Ab|-------------------------------------------------------------|
Eb|-------------------------------------------------------------|
Bb|-------------------------------------------------------------|

Eb|----------------------3----------3------------------------------|
Bb|----------------------3----------3------------------------------|
Gb|----------------------------------------------------------------|
Db|--------------------------------------------------7-----7-----7-|
Ab|-3------------------------------------------------7-----7-----7-|
Eb|-3------------------------------------------------5-----5-----5-|
Bb|-1--------------------------------------------------------------|

Eb|----------------------------------------------------------------|
Bb|----------------------------------------------------------------|
Gb|-2b----2b--2b--2b--2b-2b-2b-2b-2b-2b-2b--2b---2b-2b--2b--2b--2b-|
Db|----------------------------------------------------------------|
Ab|----------------------------------------------------------------|
Eb|----------------------------------------------------------------|
Bb|----------------------------------------------------------------|

Eb|---------------------------------------------------------------|
Bb|---------------------------------------------------------------|
Gb|---------------------------------------------------------------|
Db|---------------------------------------------------------------|
Ab|---------------------------------------------------------------|
Eb|---------------------------------------------------------------|
Bb|-0-0-0-0-0-0-0-0-0-0-0------0-0-0-0-0-0-0-0-0-0-0--0-0-0-0-0-0-|
    . . . . . . . . . . .      . . . . . . . . . . .  . . . . . .

Eb|----------------------------------------------------------------------|
Bb|-4-5-7-5---5-4-3---3-4-3-------3-------------3------------------------|
Gb|---------5-------5-------5-4-5---5-4-2-5-4-2---2-4-2-------2----------|
Db|-----------------------------------------------------5-4-5---5-4-2-1~-|
Ab|----------------------------------------------------------------------|
Eb|----------------------------------------------------------------------|
Bb|----------------------------------------------------------------------|

Eb|-----------------------------------------------------------------------------------------|
Bb|-----------------------------------------------------------------------------------------|
Gb|-----------------------------------------------------------------------------------------|
Db|-----------------------------------------------------------------------------------------|
Ab|-----------------------------------------------------------------------------------------|
Eb|-----------------------------------------------------------------------------------------|
Bb|-0-0-0-0---0-0--0--0--0--0-0----------------0-0--0--0----0--0--0--0--0--0-0--0-0-0-0-0-0-|
    . . . .   . .  .  .  .  . .                . .  .  .    .  .  .  .  .  . .

Eb|----10------10------10------10------10------10------10--|
Bb|-------8-11------------8-11------------8-11------------8|
Gb|--------------------------------------------------------|
Db|--------------------------------------------------------|
Ab|--------------------------------------------------------|
Eb|--------------------------------------------------------|
Bb|--------------------------------------------------------|

Eb|-------8-14-------------11-14-------------11-14-------------11-14\-|
Bb|----10------13-------13-------13-------13-------13-------13--------|
Gb|-11------------11-14-------------11-14-------------11-14-----------|
Db|-------------------------------------------------------------------|
Ab|-------------------------------------------------------------------|
Eb|-------------------------------------------------------------------|
Bb|-------------------------------------------------------------------|

Eb|---------------------------------------------------------------------------------------------------------|
Bb|---------------------------------------------------------------------------------------------------------|
Gb|---------------------------------------------------------------------------------------------------------|
Db|---------------------------------------------------------------------------------------------------------|
Ab|---------------------------------------------------------------------------------------------------------|
Eb|---------------------------------------------------------------------------------------------------------|
Bb|-0-0-0-0---0-0-0-0-0-0-0-------------------------------------0-0-0-0---0-0-0-0-0-0-0---------0-0-0-0-0-0-|
    . . . .   . . . . . . .                                     . . . .   .

Eb|---------------------------------------7-11------------8-17-------------14-20-------------17-20b-|
Bb|---------------------------10--------9------10------10------16-------16-------19-------19--------|
Gb|------------------------------8p7-10-----------8-11------------14-17-------------17-20-----------|
Db|-7---------4-10----------7-----------------------------------------------------------------------|
Ab|---6-----6------9------9-------------------------------------------------------------------------|
Eb|-----5-8----------8-10---------------------------------------------------------------------------|
Bb|-------------------------------------------------------------------------------------------------|

Eb|----------------------------------------------------------------------------------------------|
Bb|----------------------------------------------------------------------------------------------|
Gb|----------------------------------------------------------------------------------------------|
Db|----------------------------------------------------------------------------------------------|
Ab|----------------------------------------------------------------------------------------------|
Eb|----------------------------------------------------------------------------------------------|
Bb|-0-0-0-0---0-0-0-0-0-0-0---------------------------------0-0-0-0---0-0-0-0-0-0-0--0-0-0-0-0-0-|
    . . . .   . . . . . . .                                 . . . .   . . . . .

Eb|-20-----20------20~-----20~---20b-20b----20----19-20-19----\17------|
Bb|-----------------------------------------------------------------20-|
Gb|--------------------------------------------------------------------|
Db|--------------------------------------------------------------------|
Ab|--------------------------------------------------------------------|
Eb|--------------------------------------------------------------------|
Bb|--------------------------------------------------------------------|

Eb|--------------------------------------------------------------|
Bb|--------------------------------------------------------------|
Gb|--------------------------------------------------------------|
Db|--------------------------------------------------------------|
Ab|--------------------------------------------------------------|
Eb|--------------------------------------------------------------|
Bb|-0-------------1-------------------4-----------------5------1-|

Guitar 4
Eb|----------------------------------17h19h20t24p20p19p17----19p17-------17-------|
Bb|-19----------------------17h19h20----------------------20-------20p19----20p19-|
Gb|-------------------------------------------------------------------------------|
Db|-------------------------------------------------------------------------------|
Ab|-------------------------------------------------------------------------------|
Eb|-------------------------------------------------------------------------------|
Bb|-------------------------------------------------------------------------------|

Guitar 1
Eb|-----------------------------------------------------------------|
Bb|-----------------------------------------------------------------|
Gb|-----------------------------------------------------------------|
Db|-----------------------------------------------------------------|
Ab|-----------------------------------------------------------------|
Eb|-2-------1-------5-------4-------8-------7-------6---5-------4---|
Bb|---2-1-2---2-1-0---5-4-5---5-4-0---8-7-8---8-7-0---5---4-0-3---3-|

Guitar 2
Eb|------------------------------------|
Bb|------------------------------------|
Gb|------------------------------------|
Db|------------------------------------|
Ab|-2----------------------------------|
Eb|-2----------------------------------|
Bb|-0----------------------------------|

Eb|-------------------------------------------------------------------12h14-15h17h19p17p15p14h17-|
Bb|-17h19h20p19p17p16h17h19p17p16-15h17p16p15----16p15-13----13h15h16----------------------------|
Gb|-------------------------------------------17----------16-------------------------------------|
Db|----------------------------------------------------------------------------------------------|
Ab|----------------------------------------------------------------------------------------------|
Eb|----------------------------------------------------------------------------------------------|
Bb|----------------------------------------------------------------------------------------------|

Eb|---------------------------------|
Bb|---------------------------------|
Gb|---------------------------------|
Db|---------------------------------|
Ab|---------------------------------|
Eb|-2-------1-------5-------4-------|
Bb|---2-1-2---2-1-0---5-4-5---5-4-0-|

Eb|------------------------------------|
Bb|------------------------------------|
Gb|------------------------------------|
Db|------------------------------------|
Ab|-2----------------------------------|
Eb|-2----------------------------------|
Bb|-0----------------------------------|

Eb|-15p14p12h15p14p12--------------------------|
Bb|-------------------16p13p12-----------------|
Gb|----------------------------14p12p11--------|
Db|-------------------------------------14-13~-|
Ab|--------------------------------------------|
Eb|--------------------------------------------|
Bb|--------------------------------------------|

Eb|---------------------------------|
Bb|---------------------------------|
Gb|---------------------------------|
Db|---------------------------------|
Ab|---------------------------------|
Eb|-8-------7-------6---5-------4---|
Bb|---8-7-8---8-7-0---5---4-0-3---3-|

Eb|------------------------------------|
Bb|------------------------------------|
Gb|------------------------------------|
Db|------------------------------------|
Ab|-2----------------------------------|
Eb|-2----------------------------------|
Bb|-0----------------------------------|

[Chorus] - Guitars 1 & 2 - All palm muted
Eb|-------------------------------------------------------------------------------------------------|
Bb|-------------------------------------------------------------------------------------------------|
Gb|-------------14-------12-------------------------------------14-------12-------------------------|
Db|-------14-------14-------14----------------------------14-------14-------14----------------------|
Ab|-12-12----12-------12-------12-12-15-14-12-------12-12----12-------12-------12-12-15-14-12-------|
Eb|-------------------------------------------15-13-------------------------------------------15-13-|
Bb|-------------------------------------------------------------------------------------------------|

Guitar 3
Eb|---------------------------------------------------------------------------|
Bb|---------------------------------------------------------------------------|
Gb|-------------------------------------------------------------------------5-|
Db|-7------------------------------------------------7------------------------|
Ab|-------------------------------------------------------------------------3-|
Eb|-5------------------------------------------------5------------------------|
Bb|---------------------------------------------------------------------------|

Eb|--------------------------------------------------------------------15----------------|
Bb|-----------------------------------------------------------13----------13----13-------|
Gb|----------12------10-------------------------------12---------12----------12----12----|
Db|-----10------10------10-----------------------10------10---------10----------------15-|
Ab|-8-8----8-------8-------8-8-12-10-8-------8-8----8-------8----------------------------|
Eb|------------------------------------12-10---------------------------------------------|
Bb|--------------------------------------------------------------------------------------|
    . . .  . .  .  .  .  . . .  .  . . .  .  . .  . . .  .  .

Eb|-------------------------------------------------------------|
Bb|-------------------------------------------------------------|
Gb|-----------------------------------------------------------5-|
Db|-3---------------------------------------3-------------------|
Ab|-----------------------------------------------------------3-|
Eb|-1---------------------------------------1-------------------|
Bb|-------------------------------------------------------------|

All palm muted
Eb|-------------------------------------------------------------------------------------------------|
Bb|-------------------------------------------------------------------------------------------------|
Gb|-------------------------------------------------------------------------------------------------|
Db|-------------14-------12-------------------------------------14-------12-------------------------|
Ab|-------12-------12-------12----------------------------12-------12-------12----------------------|
Eb|-10-10----10-------10-------10-10-13-12-10-------10-10----10-------10-------10-10-13-12-10-------|
Bb|-------------------------------------------13-12-------------------------------------------13-12-|

Eb|----------------------------------------------------------------------------|
Bb|----------------------------------------------------------------------------|
Gb|-7-----------------------------------------------9-----------------------10-|
Db|----------------------------------------------------------------------------|
Ab|-5-----------------------------------------------7-----------------------8--|
Eb|----------------------------------------------------------------------------|
Bb|----------------------------------------------------------------------------|

Eb|-------------------------------------------------------------------------------------------------|
Bb|-------------------------------------------------------------------------------18----------------|
Gb|----------------------------------------------------------------------16----------16----16-------|
Db|-------------15-------14-------------------------------------15----------15----------15----15-14-|
Ab|-------14-------14-------14----------------------------14-------14----------14-------------------|
Eb|-12-12----12-------12-------12-12-15-13-12-------12-12----12-------12----------------------------|
Bb|-------------------------------------------15-13-------------------------------------------------|
    .  .  .  .  .  .  .  .  .  .  .  .  .  .  .  .  .  .  .  .  .  .  .

Eb|---------------------------------------------------|
Bb|---------------------------------------------------|
Gb|-4-------------------------------------------------|
Db|-------------------------------------------------2-|
Ab|-2-----------------------------------------------2-|
Eb|-------------------------------------------------0-|
Bb|---------------------------------------------------|

[Outro] - Guitars 1 & 2
Eb|---------------------------------------------------------------|
Bb|---------------------------------------------------------------|
Gb|---------------------------------------------------------------|
Db|---------------------------------------------------------------|
Ab|-------------------------------------------------------------7-|
Eb|-------------------------------------------------------------5-|
Bb|-2h4-4-4-5p4-4-4-7p4-4-4-5p4-4-4-2h4-4-4-5p4-4-4-7p4-4-4-5p4---|

Eb|-------------------------------------------------|
Bb|-------------------------------------------------|
Gb|-------------------------------------------------|
Db|-------------------------------------------------|
Ab|-----------------------------------------------7-|
Eb|-4-6-6-7-6-6-9-6-6-7-6-6-4-6-6-7-6-6-9-6-6-7-6-5-|
Bb|-2-4-4-5-4-4-7-4-4-5-4-4-2-4-4-5-4-4-7-4-4-5-4---|
                          . . . .

Guitar 1
Eb|-----------------------------------------------------------------------------|
Bb|-----------------------------------------------------------------------------|
Gb|-----------------------------------------------------------------------------|
Db|-11-11-11-11-10-10-10-10-7-7-7-7-6-6-6-6-10-10-10-10-9-9-9-9-6-6-6-6-5-5-5-5-|
Ab|-----------------------------------------------------------------------------|
Eb|-9--9--9--9--8--8--8--8--5-5-5-5-4-4-4-4-8--8--8--8--7-7-7-7-4-4-4-4-3-3-3-3-|
Bb|-----------------------------------------------------------------------------|

Guitar 2
Eb|---------------------------------------------------------------------------------|
Bb|---------------------------------------------------------------------------------|
Gb|---------------------------------------------------------------------------------|
Db|---------------------------------------------------------------------------------|
Ab|-12-12-12-12-11-11-11-11-8-8-8-8-7-7-7-7-11-11-11-11-10-10-10-10-7-7-7-7-6-6-6-6-|
Eb|---------------------------------------------------------------------------------|
Bb|-10-10-10-10-9--9--9--9--6-6-6-6-5-5-5-5-9--9--9--9--8--8--8--8--5-5-5-5-4-4-4-4-|

Guitars 1 & 2
Eb|---------------------------------------------------------------|
Bb|---------------------------------------------------------------|
Gb|---------------------------------------------------------------|
Db|---------------------------------------------------------------|
Ab|-------------------------------------------------------------7-|
Eb|-------------------------------------------------------------5-|
Bb|-2h4-4-4-5p4-4-4-7p4-4-4-5p4-4-4-2h4-4-4-5p4-4-4-7p4-4-4-5p4---|

Eb|-----------------------------------------|
Bb|-----------------------------------------|
Gb|-----------------------------------------|
Db|-----------------------------------------|
Ab|-----------------------------------------|
Eb|-4-6-6-7-6-6-9-6-6-7-6-6-----5--------3\-|
Bb|-2-4-4-5-4-4-7-4-4-5-4-4-5-4-3----3-2-1\-|
                            . . .    . .

************************************

| b  Bend
| h  Hammer-on
| p  Pull-off
| .  Palm Mute
| ~  Vibrato
| \  Slide down
| t  Tapping

************************************
Suggest correction
Give kudos to tab author, rate the tab!
1 2 3 4 5
comments
print report bad tab
2 comments total.
0 reply
joeadzhiyev(: 77 Jun 10, 2007 03:13 PM

dude you stole this from me to!!stop stealing my tabs you ultimate guitar poser!!!!!!!. god, andrew your so gay dude. get your own life and learn to live it. i can see why you would steal my tab seeing as you suck at guitar and all. but come on dude theres more to life then stealing my work and taking all the credit.me and my band(yes i said band cuz i actully have friends to play guitar with)are going to come up with a song singing about how gay you are. are you going to try and tab that too?but oh yeah, thats right,you suck. i forgot. but i am sure there will be tons of people tabbing that song and then you can copy and past them on and take credit for it as well.haha

stop stealing from mxtabs!.............fag.

0 reply
diemydarling 10 Aug 18, 2013 05:13 AM

OROSPU ÇOCUĞU İNSANLARIN TABINI ÇALMASANA İTOĞLUİT

guest
You may want to rate the tab now too:
select rating
Wanna post a correction for this tab? Suggest correction