Oops, an error
Loading. Please wait.

Death Of Passion Tab

version 1
version 1

Whole song

Interactive

824 views 1 this week
no commentswrite comment
1 2 3 4 5
please rate
add to favorites
launch autoscroll
font size
0
reset
how to read this tab
guitar tuner
Autoscroll
slow
fast
+/-
esc
set tempo
stop
Help us to improve Ultimate-Guitar.com Take our survey!
×
Contributor
Difficulty
intermediate
#----------------------------------PLEASE NOTE---------------------------------#
#This file is the author's own work and represents their interpretation of the #
#song. You may only use this file for private study, scholarship, or research. #
#------------------------------------------------------------------------------#

  Visit MetalTabs.com for more metal tablature
  
Band:  Nevermore
Album: Dreaming Neon Black
Song:  The Death of Passion

Version 1.1 - december 10, 2003

Transcribed By: Janco Verduin
Email:          nogmeerzooi_AT_hotmail.com

=  - hold note
.  - palm mute           /  - slide up to
\  - slide down to       ~  - vibrato
h  - hammer on           b  - Bend
p  - pull off            Suffixes for bend
t  - tap                 f  - full bend    h - half bend
ph - pinched harmonic    q  - quarter bend t - tap bend
*  - see comment         ^  - Hold bend    r release bend
x  - Staccatto           ~  - vibrato bend
,  - slight palm mute    () - ghost note, sustained note
"  - tremolo note        <> - Trill

Tunning Eb Ab Db Gb Bb Eb

 riff A-1 2x
----------------|----------------|
----------------|----------------|
----------------|----------------|
3===5=3===2=5=xx|3===5=3===2=5=2=|
1===5=1===1=5=xx|1===5=1===1=5=1=|
1===3=1===0=3=xx|1===3=1===0=3=0=|

 riff A-2 2x
very heavily muted
----------------|----------------|
----------------|----------------|
----------------|----------------|
3---5-3---2-5-xx|3---5-3---2-5-2-|
1---5-1---1-5-xx|1---5-1---1-5-1-|
1---3-1---0-3-xx|1---3-1---0-3-0-|
.   . .   . . .. .   . .   . . .


 riff B 2x
------------------|----------------|------------------|----------------|
------------------|----------------|------------------|----------------|
------------------|----------------|------------------|----------------|
------------------|----------------|------------------|------------4=3=|
---333000555333---|---3330005553===|---333000555333---|---3330005554=3=|
222------------111|222-------------|222------------111|222---------2=1=|
.................. ............b    .................. ............

 riff C 3x
--------------------------------|--------------------------------|
--------------------------------|--------------------------------|
--------------------------------|--------------------------------|
-------------------------------5|--------------------------------|
------------------------------4-|------------------------------4-|
00006-0600006-0600006-06666333--|00006-0600006-0600006-06666333-3|
....    ....    ....    ......   ....    ....    ....    ........


 riff D (+ 2x riff C)
--------|--------|------- -|- ---- ---|
--------|--------|------- -|11===12=9=|
9===8=3=|--------|9===8=10=|- ---- ---|
--------|2=======|------- -|8 ===9 =6=|
7===6=1=|2=======|7===6=8 =|- ---- ---|
--------|0=======|------- -|- ---- ---|

riff A-1 4x

 + riff B
------------------|----------------|------------------|----------------|
------------------|----------------|------------------|----------------|
------------------|----------------|------------------|----------------|
------------------|----------------|------------------|------------4=3=|
---666333888666---|---6663338886===|---666333888666---|---6663338884=3=|
555------------444|555-------------|555------------444|555---------2=1=|
.................. ............b    .................. ............

riff C 2x with some lead
riff C 2x
riff C 2x + riff D

 4x             8x              2x
------------|  ------------|  ------------|
------------|  ------------|  ------------|
------------|  ------------|  ------------|
---------5--|  ---------5==|  ---------5--|
--------4---|  --------4---|  --------4---|
66330033----|  66330033----|  66330033----|
.........      .........      .........

 4x
--------|--------|--------|--------|
--------|--------|--------|--------|
2=======|=3-36===|2=======|=3-3----|
2=======|=3-36===|2=======|=3-33===|
0=======|=1-14===|0=======|=1-13===|
--------|-1-14===|--------|-1-11===|
          . .               . .


--------|--------|--------|--------|--------|--------|--------|--------|
--------|--------|--------|--------|--------|--------|--------|--------|
0===0==0|=-------|0===0==0|=-------|0===0==0|=-------|0===0==0|=-------|
2====2==|=3-36===|2====2==|=2-23===|2====2==|=3-36===|2====2==|=3-32---|
2==2==2=|=3-36===|2==2==2=|=2-23===|2==2==2=|=3-36===|2==2==2=|=3-32---|
0=======|=1-14===|0=======|=0-01===|0=======|=1-14===|0=======|=1-10---|
          . .               . .               . .               . ..

(no guitar)

riff C 2x + riff D
riff A-1 4x

----------------|----------------|----------------|----------------|
----------------|----------------|----------------|----------------|
----------------|----------------|----------------|----------------|
3===5=3--2--5===|3===5=3===2=5=2=|3===5=3===2=5=xx|3===5=3=5=3=5=3=|
1===5=1--1--5===|1===5=1===1=5=1=|1===5=1===1=5=xx|1===5=1=5=1=5=1=|
1===3=1--0--3===|1===3=1===0=3=0=|1===3=1===0=3=xx|1===3=1=3=1=3=1=|
      .  .


----------------|----------------|----------------|----------------|
----------------|----------------|----------------|----------------|
----------------|----------------|----------------|----------------|
5=3=5=3--2--5===|3===5=3===2=5=2=|3===5=3===2=5=xx|3===5=2-2-2-2-3-|
5=1=5=1--1--5===|1===5=1===1=5=1=|1===5=1===1=5=xx|1===5=2-2-2-2-1-|
3=1=3=1--0--3===|1===3=1===0=3=0=|1===3=1===0=3=xx|1===3=0-0-0-0-1-|
                                                         . . . . .

  Visit MetalTabs.com for more metal tablature


comments
We did not receive enough feedback on this tab! Please rate:
print report bad tab
1 2 3 4 5
I want to post or [tab]
guest
You may want to rate the tab now too:
select rating
Please do not post tabs as comments. Select "correction" instead!