Oops, an error
Loading. Please wait.

Engines Of Hate Bass Tab

version 1
version 1

Whole song

Interactive

285 views 1 this week
no commentswrite comment
1 2 3 4 5
please rate
add to favorites
launch autoscroll
font size
0
reset
guitar tuner
Tab Pro tools
  • play this tab
  • loop segment
  • change instrument
  • show fretboard
  • metronome
×
Best way to learn
"Engines Of Hate"
Autoscroll
slow
fast
+/-
esc
set tempo
stop
Contributor
Tuning
D# G# C# F# A# D#
#----------------------------------PLEASE NOTE---------------------------------#
#This file is the author's own work and represents their interpretation of the #
#song. You may only use this file for private study, scholarship, or research. #
#------------------------------------------------------------------------------#

ENGINES OF HATE (Bassline)
As recorded by Nevermore
(From the 2000 Album DEAD HEART IN A DEAD WORLD)

Transcribed by Alberto Almeida
	


Arranged by Nevemore

Gtr I (Bb Eb Ab Db Gb) - 'Bass'

   Intro
    Q=135
   4/4
    Gtr I
    S S S S S S S S S S S S S S S S   S S S S S S S S S S S S S S S S
||----------------------------------|---------------------------------|
||o---------------------------------|---------------------------------|
||----------------------------------|---------------------------------|
||o---------------------------------|-5-5-5-5-5-5-5-5-5-5-5-5-5-5-5-5-|
||--5-5-5-5-5-5-5-5-5-5-5-5-5-5-5-5-|---------------------------------|


  S S S S S S S S S S S S S S S S   S S S S S S S S S S S S S S S S
|---------------------------------|----------------------------------||
|---------------------------------|---------------------------------o||
|---------------------------------|----------------------------------||
|-3-3-3-3-3-3-3-3-3-3-3-3-3-3-3-3-|-1-1-1-1-1-1-1-1-1-1-1-1-1-1-1-1-o||
|---------------------------------|----------------------------------||


    S S S S S S S S S S S S e e   S S S S S S S S S S S S S S S S
||------------------------------|----------------------------------|
||o-----------------------------|----------------------------------|
||------------------------------|----------------------------------|
||o-----------------------------|----------------------------------|
||--2-2-2-3-3-3-2-2-2-2-2-2-2-2-|-2-2-2-3-3-3-1-1-1-1-1-1-1-1-1-1--|


  S S S S S S S S S S S S S S e   S S S S S S S S S S S S S S S S
|-------------------------------|-----------------------------------||
|-------------------------------|----------------------------------o||
|-------------------------------|-----------------------------------||
|-------------------------------|----------------------------------o||
|-2-2-2-3-3-3-2-2-2-2-2-2-2-2-2-|-2-2-2-3-3-3-1-1-1-1-1-1-1-1-1-1---||


 Pre-Verse
  W          +W           +W           +W           +W
|----------|------------|------------|------------|--------|
|----------|------------|------------|------------|--------|
|----------|------------|------------|------------|--------|
|----------|------------|------------|------------|--------|
|-0--------|-(0)--------|-(0)--------|-(0)--------|-(0)----|


    S S S S S S S S S S S S S S S S   S S S S S S S S S S S S S S S S
||----------------------------------|----------------------------------|
||o---------------------------------|----------------------------------|
||----------------------------------|----------------------------------|
||o-7p0-0-0-0-0-0-0-7p0-0-7p0-0-7p0-|-8p0-0-0-0-0-0-0-8p0-0-8p0-0-8p0--|
||----------------------------------|----------------------------------|


  S S S S S S S S S S S S S S S S   S S S S S S S S S S S S S S S S
|---------------------------------|----------------------------------||
|---------------------------------|---------------------------------o||
|---------------------------------|----------------------------------||
|-6p0-0-0-0-0-0-0-6p0-0-6p0-0-6p0-|-7p0-0-0-0-0-0-0-7p0-0-7p0-0-7p0-o||
|---------------------------------|----------------------------------||


   Verse
      PM--------------------------|     PM--------------------------|
    S S S S S S S S S S S S S S S S   S S S S S S S S S S S S S S S S   4x
||----------------------------------|-----------------------------------||
||o---------------------------------|----------------------------------o||
||----------------------------------|-----------------------------------||
||o---------------------------------|----------------------------------o||
||--0-2-2-2-2-2-2-2-2-2-1-1-1-1-1-1-|-0-2-2-2-2-2-2-2-2-2-3-3-3-3-3-3---||


    S S S S S S S S S S S S S S S S   S S S S S S S S S S S S S S S S   4x
||----------------------------------|-----------------------------------||
||o---------------------------------|----------------------------------o||
||----------------------------------|-----------------------------------||
||o---------------------------------|----------------------------------o||
||--0-2-2-2-2-2-2-2-2-2-1-1-1-1-1-1-|-0-2-2-2-2-2-2-2-2-2-3-3-3-3-3-3---||


   Chorus
               PM|   PM----|
     E S  E. E S S E S S S S
||---------------------------|
||o--------------------------|
||---------------------------|
||o--------------------------|
||--10-0-10\-0-0-0-0-0-0-0-0-|


                           1.
           PM|   PM----|              PM|   PM----|
  E S E. E S S E S S S S   S S S E. E S S E S S S S
|------------------------|--------------------------|
|------------------------|--------------------------|
|------------------------|--------------------------|
|------------------------|--------------------------|
|-8-0-8\-0-0-0-0-0-0-0-0-|-6-6-6-6\-0-0-0-0-0-0-0-0-|


  S S S S S S S S S S S S S S S S
|----------------------------------||
|---------------------------------o||
|----------------------------------||
|---------------------------------o||
|-5p0-0-6p0-0-3p0-0-5p0-0-2p0-3p0--||


  2.
             PM|   PM----|
  S S S E. E S S E S S S S   S S S S S S S S S S S S S S S S
|--------------------------|----------------------------------||
|--------------------------|----------------------------------||
|--------------------------|----------------------------------||
|--------------------------|----------------------------------||
|-6-6-6-6\-0-0-0-0-0-0-0-0-|-5p0-0-6p0-0-3p0-0-5p0-0-2p0-3p0--||


   Pre-Verse
    S S S S S S S S S S S S S S S S   S S S S S S S S S S S S S S S S
||----------------------------------|----------------------------------|
||o---------------------------------|----------------------------------|
||----------------------------------|----------------------------------|
||o-7p0-0-0-0-0-0-0-7p0-0-7p0-0-7p0-|-8p0-0-0-0-0-0-0-8p0-0-8p0-0-8p0--|
||----------------------------------|----------------------------------|


  S S S S S S S S S S S S S S S S   S S S S S S S S S S S S S S S S
|---------------------------------|----------------------------------||
|---------------------------------|---------------------------------o||
|---------------------------------|----------------------------------||
|-6p0-0-0-0-0-0-0-6p0-0-6p0-0-6p0-|-7p0-0-0-0-0-0-0-7p0-0-7p0-0-7p0-o||
|---------------------------------|----------------------------------||


 Verse
    PM--------------------------|     PM--------------------------|
  S S S S S S S S S S S S S S S S   S S S S S S S S S S S S S S S S
|---------------------------------|---------------------------------|
|---------------------------------|---------------------------------|
|---------------------------------|---------------------------------|
|---------------------------------|---------------------------------|
|-0-2-2-2-2-2-2-2-2-2-1-1-1-1-1-1-|-0-2-2-2-2-2-2-2-2-2-3-3-3-3-3-3-|


    PM--------------------------|     PM----------------|
  S S S S S S S S S S S S S S S S   S S S S S S S S S S E Q
|---------------------------------|--------------------------|
|---------------------------------|--------------------------|
|---------------------------------|--------------------------|
|---------------------------------|--------------------------|
|-0-2-2-2-2-2-2-2-2-2-1-1-1-1-1-1-|-0-2-2-2-2-2-2-2-2-2-3----|


      PM--------------------------|     PM--------------------------|
    S S S S S S S S S S S S S S S S   S S S S S S S S S S S S S S S S
||----------------------------------|-----------------------------------||
||o---------------------------------|----------------------------------o||
||----------------------------------|-----------------------------------||
||o---------------------------------|----------------------------------o||
||--0-2-2-2-2-2-2-2-2-2-1-1-1-1-1-1-|-0-2-2-2-2-2-2-2-2-2-3-3-3-3-3-3---||


    S S S S S S S S S S S S S S S S   S S S S S S S S S S S S S S S S   4x
||----------------------------------|-----------------------------------||
||o---------------------------------|----------------------------------o||
||----------------------------------|-----------------------------------||
||o---------------------------------|----------------------------------o||
||--0-2-2-2-2-2-2-2-2-2-1-1-1-1-1-1-|-0-2-2-2-2-2-2-2-2-2-3-3-3-3-3-3---||


   Chorus
               PM|   PM----|
     E S  E. E S S E S S S S
||---------------------------|
||o--------------------------|
||---------------------------|
||o--------------------------|
||--10-0-10\-0-0-0-0-0-0-0-0-|


                           1.
           PM|   PM----|              PM|   PM----|
  E S E. E S S E S S S S   S S S E. E S S E S S S S
|------------------------|--------------------------|
|------------------------|--------------------------|
|------------------------|--------------------------|
|------------------------|--------------------------|
|-8-0-8\-0-0-0-0-0-0-0-0-|-6-6-6-6\-0-0-0-0-0-0-0-0-|


  S S S S S S S S S S S S S S S S
|----------------------------------||
|---------------------------------o||
|----------------------------------||
|---------------------------------o||
|-5p0-0-6p0-0-3p0-0-5p0-0-2p0-3p0--||


  2.
             PM|   PM----|
  S S S E. E S S E S S S S   S S S S S S S S S S S S S S S S
|--------------------------|----------------------------------||
|--------------------------|----------------------------------||
|--------------------------|----------------------------------||
|--------------------------|----------------------------------||
|-6-6-6-6\-0-0-0-0-0-0-0-0-|-5p0-0-6p0-0-3p0-0-5p0-0-2p0-3p0--||


   Guitar Solo
    H.      E E   +H     H      H.      E E   +W
||--------------|-------------|-------------|--------|
||o-------------|-------------|-------------|--------|
||--------------|-------------|-------------|--------|
||o-2-------2-2-|-(2)----5----|-1-------1-1-|-(1)----|
||--------------|-------------|-------------|--------|


  H.      E E   +H     H      H.      E E   +Q.   E E E E E
|-------------|-------------|-------------|-------------------||
|-------------|-------------|-------------|------------------o||
|-------------|-------------|-------------|-------------------||
|-2-------2-2-|-(2)----5----|-1-------1-1-|-(1)---1-2-1------o||
|-------------|-------------|-------------|-------------3-2---||


   Interlude
    H.      E E   +H     H      H.      E E   +W      4x
||--------------|-------------|-------------|---------||
||o-------------|-------------|-------------|--------o||
||--------------|-------------|-------------|---------||
||o-------------|-------------|-6-------6-6-|-(6)----o||
||--0-------0-0-|-(0)----3----|-------------|---------||


 Guitar Break
  E E H.        H    S S S S S S S S   E E H.        H    S S S S S S S S
|-------------|----------------------|-------------|-----------------------|
|-------------|----------------------|-------------|-----------------------|
|-------------|----------------------|-------------|-----------------------|
|-6-5---------|------0-0---0-0-0-0-0-|-6-5---------|------0-0-0-0-0-0-0-0--|
|-------------|----------------------|-------------|-----------------------|


  E E H.        H    S S S S S S S S   E E H.        W
|-------------|----------------------|-------------|------||
|-------------|----------------------|-------------|------||
|-------------|----------------------|-------------|------||
|-6-5---------|------0-0---0-0-0-0-0-|-6-5---------|------||
|-------------|----------------------|-------------|------||


   Interlude
    S S S S S S S S S S S S S S S S
||----------------------------------|
||o---------------------------------|
||----------------------------------|
||o---------------------------------|
||--6-6-5-5-5-5-5-5-6-6-5-5-5-5-5-5-|


                                  1.
  S S S S S S S S S S E S S S S   S S S S S S S S S S S S S S S S
|-------------------------------|---------------------------------|
|-------------------------------|---------------------------------|
|-------------------------------|---------------------------------|
|-------------------------------|---------------------------------|
|-6-6-5-5-5-5-5-5-0-0---0-0-0-0-|-6-6-5-5-5-5-5-5-6-6-5-5-5-5-5-5-|


  S S S S S S S S S S S S S S S S
|----------------------------------||
|---------------------------------o||
|----------------------------------||
|---------------------------------o||
|-6-6-5-5-5-5-5-5-0-0-0-0-0-0-0-0--||


  2.
  S S S S S S S S S S S S S S S S   S S S S S S S S S S S S Q
|---------------------------------|------------------------------||
|---------------------------------|------------------------------||
|---------------------------------|------------------------------||
|---------------------------------|-------------------------6----||
|-6-6-5-5-5-5-5-5-6-6-5-5-5-5-5-5-|-6-6-6-6-3-3-3-3-5-5-5-5------||


   Chorus
               PM|   PM----|
     E S  E. E S S E S S S S
||---------------------------|
||o--------------------------|
||---------------------------|
||o--------------------------|
||--10-0-10\-0-0-0-0-0-0-0-0-|


                           1.
           PM|   PM----|              PM|   PM----|
  E S E. E S S E S S S S   S S S E. E S S E S S S S
|------------------------|--------------------------|
|------------------------|--------------------------|
|------------------------|--------------------------|
|------------------------|--------------------------|
|-8-0-8\-0-0-0-0-0-0-0-0-|-6-6-6-6\-0-0-0-0-0-0-0-0-|


  S S S S S S S S S S S S S S S S
|----------------------------------||
|---------------------------------o||
|----------------------------------||
|---------------------------------o||
|-5p0-0-6p0-0-3p0-0-5p0-0-2p0-3p0--||


  2.
             PM|   PM----|
  S S S E. E S S E S S S S   S S S S S S S S S S S S S S S S
|--------------------------|----------------------------------||
|--------------------------|----------------------------------||
|--------------------------|----------------------------------||
|--------------------------|----------------------------------||
|-6-6-6-6\-0-0-0-0-0-0-0-0-|-5p0-0-6p0-0-3p0-0-5p0-0-2p0-3p0--||


   Bridge
    S S S S S S S S S S S S S S S S   S S S S S S S S S S S S S S S S
||----------------------------------|----------------------------------|
||o---------------------------------|----------------------------------|
||----------------------------------|----------------------------------|
||o-7p0-0-0-0-0-0-0-7p0-0-7p0-0-7p0-|-8p0-0-0-0-0-0-0-8p0-0-8p0-0-8p0--|
||----------------------------------|----------------------------------|


  S S S S S S S S S S S S S S S S   S S S S S S S S S S S S S S S S
|---------------------------------|----------------------------------||
|---------------------------------|---------------------------------o||
|---------------------------------|----------------------------------||
|-6p0-0-0-0-0-0-0-6p0-0-6p0-0-6p0-|-7p0-0-0-0-0-0-0-7p0-0-7p0-0-7p0-o||
|---------------------------------|----------------------------------||


   Outro
    S S S S S S S S S S S S S S S S   S S S S S S S S S S S S S S S S
||----------------------------------|----------------------------------|
||o---------------------------------|----------------------------------|
||----------------------------------|----------------------------------|
||o---------------------------------|-5-5-5-5-5-5-5-5-5-5-5-5-5-5-5-5--|
||--5-5-5-5-5-5-5-5-5-5-5-5-5-5-5-5-|----------------------------------|


  S S S S S S S S S S S S S S S S
|---------------------------------|
|---------------------------------|
|---------------------------------|
|-3-3-3-3-3-3-3-3-3-3-3-3-3-3-3-3-|
|---------------------------------|


  S S S S S S S S S S S S S S S S     H     H
|----------------------------------||------------*|
|---------------------------------o||------------*|
|----------------------------------||------------*|
|-1-1-1-1-1-1-1-1-1-1-1-1-1-1-1-1-o||------------*|
|----------------------------------||-5\---------*|



Duration Legend
---------------
W - whole; H - half; Q - quarter; E - 8th; S - 16th; T - 32nd; X - 64th; a - acciaccatura
+ - note tied to previous; . - note dotted; .. - note double dotted
Uncapitalized letters represent notes that are staccato (1/2 duration)
Irregular groupings are notated above the duration line
Duration letters will always appear directly above the note/fret number it represents the
duration for.  Duration letters with no fret number below them represent rests.  Multi-
bar rests are notated in the form Wxn, where n is the number of bars to rest for.  Low
melody durations appear below the staff

Tablature Legend
----------------
 h   - hammer-on
 p   - pull-off
 b   - bend
 pb  - pre-bend
 r   - bend release (if no number after the r, then release immediately)
 /\  - slide into or out of (from/to "nowhere")
 s   - legato slide
 S   - shift slide
 - natural harmonic
[n]  - artificial harmonic
n(n) - tapped harmonic
 ~   - vibrato
 tr  - trill
 T   - tap
 TP  - trem. picking
 PM  - palm muting
\n/  - tremolo bar dip; n = amount to dip
 \n  - tremolo bar down
 n/  - tremolo bar up
/n\  - tremolo bar inverted dip
 =   - hold bend; also acts as connecting device for hammers/pulls
 <> - volume swell (louder/softer)
 x   - on rhythm slash represents muted slash
 o   - on rhythm slash represents single note slash

Misc Legend
-----------
 |  - bar
||  - double bar
||o - repeat start
o|| - repeat end
*|  - double bar (ending)
 :  - bar (freetime)
 $  - Segno
 &  - Coda
Tempo markers -  = BPM(8/16=s8/s16), where s8 = swing 8ths, s16 = swing 16ths

comments
We did not receive enough feedback on this tab! Please rate:
print report bad tab
1 2 3 4 5
I want to post or [tab]
guest
You may want to rate the tab now too:
select rating
Please do not post tabs as comments. Select "correction" instead!