Oops, an error
Loading. Please wait.

Fault Of The Flesh Tab

version 1
version 1

Whole song

Interactive

1,142 views 1 this week
no commentswrite comment
1 2 3 4 5
please rate
add to favorites
launch autoscroll
font size
0
reset
how to read this tab
guitar tuner
Autoscroll
slow
fast
+/-
esc
set tempo
stop
Help us to improve Ultimate-Guitar.com Take our survey!
×
Author
Difficulty
intermediate
#----------------------------------PLEASE NOTE---------------------------------#
#This file is the author's own work and represents their interpretation of the #
#song. You may only use this file for private study, scholarship, or research. #
#------------------------------------------------------------------------------#

  Visit MetalTabs.com for more metal tablature
  
Band:  Nevermore
Album: Dreaming Neon Black
Song:  The fault of the flesh

Version 1.0 - december 10, 2003

Transcribed By: Janco Verduin
Email:          nogmeerzooi_AT_hotmail.com

=  - hold note
.  - palm mute           /  - slide up to
\  - slide down to       ~  - vibrato
h  - hammer on           b  - Bend
p  - pull off            Suffixes for bend
t  - tap                 f  - full bend    h - half bend
ph - pinched harmonic    q  - quarter bend t - tap bend
*  - see comment         ^  - Hold bend    r release bend
x  - Staccatto           ~  - vibrato bend
,  - slight palm mute    () - ghost note, sustained note
"  - tremolo note        <> - Trill

Tunning Eb Ab Db Gb Bb Eb

 riff A 3x
--------|--------|--------|--------|
--------|--------|--------|--------|
--------|--------|--------|--------|
--------|--------|--------|--------|
--------|--------|--------|--------|
00106001|00106013|00106001|00106014|
.. . ..  .. . .   .. . ..  .. . .

--------|--------|--------|--------|
--------|--------|--------|--------|
--------|--------|--------|--------|
--------|--------|--223225|-222325=|
--------|--------|--223225|-222325=|
00106001|00106013|00001003|-000103=|
.. . ..  .. . .   ........  .....

 riff B 4x
----------------|
----------------|
--------5=======|
2=2--2-24=======|
2=2--2-23=======|
0=0--0-0--------|
  .  . .

 riff C 3x
----------------|----------------|   |   |----------------|----------------|
----------------|----------------|   |   |----------------|----------------|
----------------|----------------| % | % |----------------|----------------|
8---8-----8-----|--8-------------|   |   |8---8-----8-----|--8-------------|
8---8-----8-----|--8-------------|   |   |8---8-----8-----|--8-----------4=|
6666666666666666|666666663=====0=|   |   |6666666666666666|66666666003366--|
 ... ..... ..... .. .....bf^^rrp           ... ..... ..... .. ...........

 riff D 2x
----------------|----------------|----------------|
----------------|----------------|----------------|
5\4---2-4/5-----|----------------|----------------|
5\4---2-4/5-7\6-|--6/7\6-2-3---2-|3-2-3===3-0-3-0-|
3\2---0-2/3-7\6-|--6/7\6-2-3---2-|3-2-1===3-0-3-0-|
------------5\4-|--4/5\4-0-1---0-|1-0-1===1---1---|
      .                                   . . . .

 (D continued)
----------------|----------------|----------------|
----------------|----------------|----------------|
5\4---2-4/5-----|----------------|----3-2---------|
5\4---2-4/5-7\6-|--6/7\6-2-3---3-|2-3-3-2-2===3-5-|
3\2---0-2/3-7\6-|--6/7\6-2-3---3-|2-3-1-0-2===3-5-|
------------5\4-|--4/5\4-0-1---1-|0-1-----0===1-3-|
      .

riff C 3x

 riff E 2x
- -- - ------------|----------------|- -- - ------------|----------------|
- -- - ------------|----------------|- -- - ------------|----------------|
- 0- - -0--0-0-----|--0==0====0==0==|- 0- - -0--0-0-----|--0==0====0==0==|
10=10= 9=96=5=53--6|5==5==5====5==5=|10=10= 9=96=5=53--6|4==4==4====4==4=|
10== 109==6=5==3--6|55==5==5=5==5==5|10== 109==6=5==3--6|44==4==4=4==4==4|
8 == = 7==4=3==1--4|3=======3=======|8 == = 7==4=3==1--4|2=======2=======|
               .                                    .

riff B 4x

 riff F 4x
----------------|----------------|----------------|----------------|
----------------|----------------|----------------|----------------|
----------------|----------------|----------------|----------------|
----------------|----------------|----------------|----------------|
----------------|----------------|----------------|----------------|
5==04-0-4-0-0-4-|0-5-4-0-8-7-5-5=|===04-0-4-0-0-4-|0-0-1-0-3-1-0-5=|
   .  .   . .    .     .             .  .   . .    . .   .     .

riff A 2x
riff C 2x
riff E 2x
riff B 4x
riff A

--------|--------|--------|--------||
--------|--------|--------|--------||
--------|--------|--------|----32--||
--------|--------|--223225|-222325=||
--------|--------|--223225|-222105=||
00106001|00106013|00001003|-000--3=||
.. . ..  .. . .   .......   ...

  Visit MetalTabs.com for more metal tablature


Suggest correction
What's this?
You can suggest a correction to this tab. Community and Mods will review your correction and vote to approve or reject it.
comments
We did not receive enough feedback on this tab! Please rate:
print report bad tab
1 2 3 4 5
guest
You may want to rate the tab now too:
select rating
Please do not post tabs as comments. Select "correction" instead!